Аккорды Little Eva - Will You Love Me Tomorrow

Добавлено: @romashka
Дата добавления: 02 Января 2024г.
Рейтинг:
0.0
Просмотров: 70
Tuning: EADG

G|------------------------------------------------------------------------------------------------|
D|------------------------------------------------------------------------------------------------| x2
A|3-----------3-----------0-----------0-------0---------------------------------------------------|
E|------------------------------------------------1-----------1-----------3-------3-------3---3---|

0:17

G|------------------------------------------------------------------------------------------------|
D|------------------------------------------------------------------------------------------------|
A|3-----------3-----------3-----------3-------3---------------------------------------------------|
E|------------------------------------------------1-----------1-----------3-------3-------3---3---|

G|------------------------------------------------------------------------------------------------|
D|------------------------------------------------------------------------------------------------|
A|3-----------3-----------3-----------3-------3---------------------------------------------------|
E|------------------------------------------------3-----------3-----------3-------3-------3---3---|

0:35

G|------------------------------------------------------------------------------------------------|
D|------------------------------------------------------------------------------------------------|
A|------------------------------------------------0-----------0-----------0-------0-------0-------|
E|0-----------0-----------0-----------0-------0-----------------------------------------------3---|

G|------------------------------------------------------------------------------------------------|
D|------------------------------------------------------------------------------------------------|
A|------------------------------------------------3-----------3-----------------------------------|
E|1-----------1-----------3-----------3-------3---------------------------3-------3-------3---3---|

0:52

G|------------------------------------------------------------------------------------------------|
D|------------------------------------------------------------------------------------------------|
A|3-----------3-----------3-----------3-------3---------------------------------------------------|
E|------------------------------------------------1-----------1-----------3-------3-------3---3---|

G|------------------------------------------------------------------------------------------------|
D|------------------------------------------------------------------------------------------------|
A|3-----------3-----------3-----------3-------3---------------------------------------------------|
E|------------------------------------------------3-----------3-----------3-------3-------3---3---|

1:10

G|------------------------------------------------------------------------------------------------|
D|------------------------------------------------------------------------------------------------|
A|------------------------------------------------0-----------0-----------0-------0-------0-------|
E|0-----------0-----------0-----------0-------0-----------------------------------------------3---|

G|------------------------------------------------------------------------------------------------|
D|----------------------------------------------------------------------------------------0---2---|
A|------------------------------------------------3-----------3-----------3-----------3-----------|
E|1-----------1-----------3-----------3-------3---------------------------------------------------|

1:28

G|------------------------------------------------------------------------------------------------|
D|3-----------------------3-------3-------3---3---2-----------------------2-------2-------2---2---|
A|------------3-----------------------------------------------2-----------------------------------|
E|------------------------------------------------------------------------------------------------|

G|------------------------------------------------------------------------------------------------|
D|3-----------------------3-------3-------3---3-------------------------------------------0---2---|
A|------------3-----------------------------------3-----------3-----------3-----------3-----------|
E|------------------------------------------------------------------------------------------------|

1:45

G|------------------------------------------------------------------------------------------------|
D|3-----------------------3-----3-3-------3---3---2-----------------------2-------2-------2---2---|
A|------------3-----------------------------------------------2-----------------------------------|
E|------------------------------------------------------------------------------------------------|

G|------------------------------------------------------------------------------------------------|
D|------------------------0-------0-------0---0---3-------3-------3---3---5-----------------------|
A|0-------0-------0---0-------------------------------------------------------------------0---2---|
E|--------------------------------------------------------------------------------3---------------|

2:02

G|------------------------------------------------------------------------------------------------|
D|------------------------------------------------------------------------------------------------|
A|3-----------3-----------3-----------3-------3---------------------------------------------------|
E|------------------------------------------------1-----------1-----------3-------3-------3---3---|

G|------------------------------------------------------------------------------------------------|
D|------------------------------------------------------------------------------------------------|
A|3-----------3-----------3-----------3-------3---------------------------------------------------|
E|------------------------------------------------3-----------3-----------3-------3-------3---3---|

2:20

G|------------------------------------------------------------------------------------------------|
D|------------------------------------------------------------------------------------------------|
A|------------------------------------------------0-----------0-----------0-------0-------0-------|
E|0-----------0-----------0-----------0-------0-----------------------------------------------3---|

G|------------------------------------------------------------------------------------------------|
D|------------------------------------------------------------------------------------------------|
A|------------------------------------------------3-----------3-----------0-------0-------0-------|
E|1-----------1-----------3-----------3-------3-----------------------------------------------3---|

G|------------------------------------------------------------------|
D|------------------------------------------------------------------|
A|--------------------------------------------------------------3---|
E|1-----------------------------3-----------------------------------|		
Но если и музыка нас оставит, что будет тогда с нашим миром? (Гоголь)
Мы стремимся к созданию контента, соответствующего всем нормам законодательства и уважающего интеллектуальную собственность. Мы также придаем большое значение тому, чтобы не задеть никого и не оскорбить чьи-либо чувства. Если у вас есть вопросы или претензии по размещенному материалу, пожалуйста, сообщите нам об этом на указанный адрес электронной почты: [email protected].
Шрифт
-
0
+
Прокрутка
-
0
+
Стоп
Наверх