Аккорды «Local H»

Local H
Думаю, данная группа прежде всего заинтересует поклонников группы Nirvana, чьими последователями считаются Local H. Именно последователями, а не подражателями, что подтверждает благосклонное отношение к ним американских ценителей творчества Кобейна, обычно довольно ревностно относящихся к музыкантам, пытающимся передать первозданную энергию гранжа. Американская группа Local H, основанная в том же году, что и Nirvana (1987), выпустила свой первый альбом спустя лишь 8 лет; к этому моменту она уже… Читать полностью... Думаю, данная группа прежде всего заинтересует поклонников группы Nirvana, чьими последователями считаются Local H. Именно последователями, а не подражателями, что подтверждает благосклонное отношение к ним американских ценителей творчества Кобейна, обычно довольно ревностно относящихся к музыкантам, пытающимся передать первозданную энергию гранжа. Американская группа Local H, основанная в том же году, что и Nirvana (1987), выпустила свой первый альбом спустя лишь 8 лет; к этому моменту она уже приобрела некоторую известность, выступая в маленьких клубах. Впрочем, большие площадки эта команда не собирает и поныне, довольствуясь вниманием немногочисленных, но преданных поклонников (к слову сказать, в России эта группа практически неизвестна). В составе группы всего два человека: Скотт Лукас (Scott Lucas) – вокалист, гитарист и басист в одном лице, и барабанщик Джо Дениэлс (Joe Daniels). Казалось бы, исполнение «заряженного» пост-гранжа – задача для дуэта непосильная, однако все мы помним коллектив Death From Above 1979, умудрявшийся припечатывать слушателя к полу с помощью одного лишь баса и барабанов. Скот Лукас играет без изысков и витиеватых украшательств: пять-шесть аккордов, незамысловатое соло… Но исполнено это с такой энергией, что едва выдерживает усилитель. Четкий и жесткий ритм, сопровождаемый тяжелой поступью ударных, местами приближает звучание к хард-року. Без грязи, шума и пост-роковых заплывов. Голос – мощный, грубый, не срывающийся в истерики и завывания. Все это буйство прекрасно уживается с доступными и сразу же запоминающимися мелодиями, а исполнительское мастерство находит применение не только в зубодробительных эпизодах, но и в умеренных, лиричных композициях. Я уверен, что Local H заслуживают вашего внимания; столь искренно, бесхитростно и самозабвенно играют не многие. Скрыть...
Популярные аккорды Local H:
алфавиту | просмотрам | случайно
  • E--------------|
    B--------------|
    G--------------|
    D--2--10-7-----|
    A--2--10-7--6--|
    E--0--8--5--7--|
    
    E-------------------|
    B-------------------|
    G-------------------|
    D--2--10-7--10-7--5-|
    A--2--10-7--10-7--5-|
    E--0--8--5--8--5--3-|
    
    And…
  • Chords used: C#  A  E  D
    
    
        C# C#                             C# C#
              Well I'm not mad, I'm just bored
                                              C# C#
              Cause everything I do is only because…
  • Intro
    G|--------------|
    D|--------------|
    A|--4-4-4444----|    (X2)
    E|--------------|
     
    verse 1 you don't play anything
     
    Chorus
     
    G|-----------------------------------------------------------------|
    D|-----------------------------------------------------------------|
    A|---4-4-4-4-4-4-4-44444--11111111--4-4-4-4-4-44444-111-1111-111---|
    E|--5h6-6-8-6------------------------------------------------------|…
  • Slide= /
    Scratch= X
    Harmonics=H
    ~ = Let Ring
    Intro
    e|--------------------------------------------|
    b|--------------------------------------------|
    g|--------------------------------------------| x 1
    a|---------22-----000-33-222-----020-000------|
    E|-000-333----111------------333--------111---|
    
    
    Then…
  • Intro pt. 1
    ------------------------------------------------------------------------------
    ---5/7-7-7-7-7-7-7-7----------------------------------------------------------
    ------------------------------------------------------------------------------
    ------------------------------------------------------------------------------
    ------------------------------------------------------------------------------
    ------------------------------------------------------------------------------…
  • Standard Tuning (G,D,A,E,B)
    
    Key:
    s=stop string vibration
    x=mute/scratch
    /=Slide Down Toward Body
    ~=Let Ring
    
    Intro/Verse
    G-----------------|---------------------|
    D-----------------|---------------------|
    A--0s--0s--0-0-0--|--3s--3-3s--3-3-3-3--|
    E-----------------|---------------------|
    B-----------------|---------------------|
    
    G------------------|---------------------------|
    D------------------|---------------------------|
    A--x---------------|---------------------------|
    E---3s--3s--3-3-3//|//10s--10-10s--10-10-10-x--|
    B------------------|---------------------------|
    
    Chorus
    G---------------|--------------------|
    D---------------|--------------------|
    A--0~~0~~0-0-0--|--3~~3-3~~-3-3-3-3--|
    E---------------|--------------------|
    B---------------|--------------------|
    
    G---------------|---------------------------|
    D---------------|---------------------------|
    A---------------|---------------------------|
    E--3~~3~~3-3-3//|//10~~10-10~~-10-10-10-10--|
    B---------------|---------------------------|
    
    Bridge
    G-------------------|-------------------|
    D-------------------|-------------------|
    A--0-0-0-0-0-0-0-0--|--3-3-3-3-3-3-3-3--|
    E-------------------|-------------------|
    B-------------------|-------------------|
    
    G-------------------|---------------------------|
    D-------------------|---------------------------|
    A-------------------|---------------------------|
    E--3-3-3-3-3-3-3-3//|//10-10-10-10-10-10-10-10--|
    B-------------------|---------------------------|…
  • Play this first riff 5 times.  Notes in parenthesis mean to bend the string
    up to that pitch.  Example:  -2-(3)-(2)- would mean to bend the string at the
    second fret up one-half step and release it.…
  • 12 Step down
    
    ~ = Let ring
    / = Slide
    b = Bend
    
    Intro (bass).Play twice
    g|----------------------------------------------------------------------|
    d|----------------------------------------------------------------------|
    a|----------------------------------------------------------------------|
    E|-0-0-0-0-0-0-0-00-5-5-5-5-5-5-5-55-8-8-8-8-8-8-8-88-7-7-7-77-3-3-3-33-|
    
    Enter…
  • Intro (7x)
    e|-------------------------------------------------------------------|
    B|-------------------------------------------------------------------|
    G|5--5--5-5--5--5-5-5-6-6-6-5--5--5--5-5--5-5-5-6-6-6-5--------------|
    D|-------------------------------------------------------------------|
    A|-------------------------------------------------------------------|
    E|-------------------------------------------------------------------|
    
    Chorus…
  • Tuning:EADGBe
    
    e|---------------------------------------------------------------------------|
    B|---------------------------------------------------------------------------|
    G|---------------------------------------------------------------------------|
    D|------7-7-7-7-7---5---3-3-3-3-3--------------------------------------------|
    A|------7-7-7-7-7---5---3-3-3-3-3--------------------------------------------|
    E|------5-5-5-5-5---3---1-1-1-1-1--------------------------------------------|…
  • 1/2 step down
    
    Verse
    |---------------------------------|
    |---------------------------------|
    |o-------------------------------o|
    |o--4-4-4-4-4-4-4-4-4-4-5-5-5-5--o|
    |---4-4-4-4-4-4-4-4-4-4-5-5-5-5---|
    |---2-2-0-2-2-0-2-2-0-2-3-3-3-3---|
    
    Chorus
    |---------------|
    |---------------|
    |---------------|
    |---4--2--7-5---|
    |---4--2--7-5---|
    |--…
  • Regular tuning
    
    / = Slide
    pm - Palm Mute
    
    Intro
    
       pm....         pm......
    e|----------------------------------|
    b|----------------------------------| repeat a few times
    g|----------------------------------|
    d|-9-9-9-9--9///3--3-3-3-3--3///9---|
    a|-9-9-9-9--9///3--3-3-3-3--3///9---|
    E|-7-7-7-7---------1-1-1-1----------|
    
    
    Verse…
  • Tuned 1/2 step down
    
    Intro riff         Feedback-----------|
    e--------------------------------------|
    B--------------------------------------|
    G--6-6-6665-55-5554/////////-|
    D--------------------------------------|
    A--------------------------------------|
    E--------------------------------------|
    
    Verse…
  • Tuning: Drop D
    ___________________________________________________________
    _IntroVerse_______________________________________________
    |=========|
    |Bass Line|
    |=========|
    
    |---------------------------------|
    |---------------------------------|
    |---------------------------------|
    |---------------------------------|
    |---------2-2-1-1-2-2-1-1---------|
    |-1-1-4-4-----------------4-4-3-3-|
    
    |======|
    |Guitar|
    |======|
    
    |-----------|…
  • 1/2 step tuning
    
    / = Slide
    ^ = Pick upward
    
    Intro
            ^   ^
    e|------0--------------------|
    b|----0-0-0-0----------------|
    g|-1--1---1-1------- repeat--| 8x
    d|-2--2---2-2--2-------------|
    a|-2--2---2-2--2-------------|
    E|-0--0---0-0--0-------------|
    
    
    Riff1…
  • Dropped D Tuning, tuned down 1/2 step
    
    Riff 1
    Intro/Verse
         PM------------------------------------------------------|
    e------------------------------------------------------------|
    B--------------------------------------------…
  • Drop-D Tuning
    
    / = Slide
    h = Hammer on
    p = pull
    
    Main Riff
    
    e|-------------------------------|
    b|-------------------------------| Just keep repeating until
    g|-------------------------------|
    d|-0--6-5--3-5-3--0--6-5--3-5-3--|
    a|-0--6-5--3-5-3--0--6-5--3-5-3--|
    D|-0--6-5--3-5-3--0--6-5--3-5-3--|
    
    end…
  • intro
    e-----------------0-0-0-0-0---3-3-3------
    b-----------------0-0-0-0-0---3-3-3------
    g-----------------0-0-0-0-0---0-0-0------
    d-----------------2-2-2-2-2---0-0-0------
    a----0-1-0--------2-2-2-2-2---2-2-2------
    e--3-------3-1-0--0-0-0-0-0---3-3-3------
    
    A#…
  • q  q  e  e  e  e  q  q  e  e  e  e  q  q  e  e  e  e  q  q  e  e  e  e
    E-------------------------------------------------------------------------------|
    B-------------------------------------------------------------------------------|
    G---------------------------------------4--4--4--4--4--4--4--4--4--4--4--4------|
    D---2--2--2--2--2--2--2--2--2--2--2--2--4--4--4--4--4--4--4--4--4--4--4--4------|
    A---2--2--2--2--2--2--2--2--2--2--2--2--2--2--2--2--2--2--2--2--2--2--2--2------|
    E---0--0--0--0--0--0--0--0--0--0--0--0------------------------------------------|…
Наверх