Аккорды Love - Orange Skies

Добавлено: @romashka
Дата добавления: 13 Сентября 2020г.
Рейтинг:
0.0
Просмотров: 113
Транспонировать - +
     5-------5---|-----5----5--5---|-----0-----------|-3-|
---7-------7-----|---7-----7-7-----|---0-0-------0---|-3-|
-7-----7-------7-|-6-----6-------6-|-0-----0-----0---|-3-|
-----------------|-----------------|-----------0-----|---|
-----------------|-----------------|-----------------|---|
-----------------|-----------------|-----------------|---|

D        F#m  
Orange skies

Em            Gm               Dm9
Carnivals and cotton candy and you

-0--0--0----0---0-----0---0---0--0-|
-1--0--1----3---1-----0---1---0--1-|
-2--0--2----4---2-----0---2---0--2-|
-0--0--0----0---0-----0---0---0--0-|
-----------------------------------|
-----------------------------------|
And I love you too, you know I do


Amaj7

D      F#m  
Nightingale

Em            Gm              Dm9
Prettier than anything in the world

-0--0--0----0---0-----0---0---0--0-|
-1--0--1----3---1-----0---1---0--1-|
-2--0--2----4---2-----0---2---0--2-|
-0--0--0----0---0-----0---0---0--0-|
-----------------------------------|
-----------------------------------|
And I love you too, you know I do

Cmaj7       Fmaj7
You make me happy

Cmaj7               Fmaj7
Laughing, glad, and full of glee

Cmaj7                Fmaj7
And you don't have to try, girl

Cmaj7              Fmaj7
For you it comes so naturally

                 Cmaj7   Bb6
Right here in my arms



Fmaj7    Amaj7   Fmaj7   Cmaj7   Gm

D          F#m
Pam pam pam pa-ya 

Em          Gm        Dm9
pa-ya pam pam pam pam pam pa
Наверх