Аккорды «Lynyrd Skynyrd»

Lynyrd Skynyrd
Группа образовалась в Джексонвилле, штат Флорида, в 1964 г. Первый состав включал Рональда Уэйна (Ронни) ван Занта (вокал), Гэрри Россингтона и Аллена Коллинза (гитара), Боба Бернса (ударные) и Ларри Юнстрома (бас). Изменения в составе и названии ("My Backyard", "One Percent Band") происходили, но в целом костяк группы оставался неизменным. Свое постоянное имя состав получил, когда на одном из выступлений парни отрекомендовались как "Leonard Skinner Band", подколка в адрес "любимого" физрука, который… Читать полностью... Группа образовалась в Джексонвилле, штат Флорида, в 1964 г. Первый состав включал Рональда Уэйна (Ронни) ван Занта (вокал), Гэрри Россингтона и Аллена Коллинза (гитара), Боба Бернса (ударные) и Ларри Юнстрома (бас). Изменения в составе и названии ("My Backyard", "One Percent Band") происходили, но в целом костяк группы оставался неизменным. Свое постоянное имя состав получил, когда на одном из выступлений парни отрекомендовались как "Leonard Skinner Band", подколка в адрес "любимого" физрука, который частенько гонял их за несоответствие школьному дресс-коду (в частности за запрещённые длинные волосы) и благодаря которому они вылетели из школы. Так после ряда искажений они превратилась в Lynyrd Skynyrd. В 1971-72 году менеджером группы был Алан Уолден, который устроил им запись на Muscle Shoals Sound Studios в Шеффилде, штат Алабама, запись не вышла (из-за несоответствия формата песен группы с существовавшими тогда аудионосителями), но группа получила опыт студийной работы и к ним присоединился клавишник Уильям Норрис (Билли) Пауэлл. А место басиста занимает Леон Вилксон. В 1973 группу подбирает Эл Купер, только что основавший под эгидой MCA Records лейбл Sounds of The South. Группа выпустила первый альбом "Pronounced leh-nerd skin-nerd". На время записи место басиста занимает Эд Кинг, который потом переходит на гитару (оригинально он - гитарист, а место басиста занял потому что Леон Вилксон временно ушёл из группы). Однако долгожданная популярность не приходила вплоть до 1974 года, года когда со вторым альбомом (Second Helping) вышла песня Sweet Home Alabama ставшая не просто хитом, а даже неофициальным гимном Южных Штатов. Из-за этого на MCA придумали создать группе конфедеративный имидж: флаг конфедерации, исполнение дикси в начале выступления и тому подобное. Далее популярность группы растет. Состав группы такой: Ронни ван Зант (вокал, автор песен), Аллен Коллинз, Эд Кинг, Гэри Россингтон (гитары... да, их три), Леон Вилксон (бас), Билли Пауэлл (клавиши) и место Боба Бернса занял Томас Делмар (Артимус) Пайл. Во время одного из турне Эд Кинг покидает группу и через некоторое время они не без труда находят ему замену в лице Стивена Гейнса (его предложила на прослушивание его сестра Кейси, бывшая у Skynyrd одной из бэк-вокалисток). Брат Стивен очень органично вписался в состав. В 1976 году был записан и выпущен концертный альбом "On more from the road" который быстренько улетел в платиновый статус и группа приступила к записи следующего альбома, а также к выполнению туровых обязательств. В конечном итоге на прилавках в 1977 году появился Street Survivors и Skynyrd отправились в турне в поддержку альбома. 20 октября 1977 года произошла авиакатастрофа, унёсшая жизни Ронни ван Занта, Стивена и Кейси Гейнс, а так же приведшая к прекращению существования Lynyrd Skynyrd. Впоследствии члены группы временно объединились в Rossington-Collins Band, к которой не присоединился только Артимус Пайл, вынужденный залечивать раны после мотоциклетной аварии, но RCB просуществовала недолго. В 1987 г., в ознаменовании 10 со дня злополучной катастрофы, все кто дожил объединяются в Lynyrd Skynyr Tribute Band, что в конечном итоге превращается в воссоединение группы. На вокале младший брат Ронни - Джонни ван Зант. Аллен Коллинс до этого попадает в автомобильную аварию и остаётся частично парализован, его место занимает Рэнделл Холл. Коллинс умирает от воспаления лёгких в 1990. Дальнейший состав группы меняется по причине ухода (или смерти членов группы). На данный момент от оригинального состава в Skynyrd остался только Гэри Россингтон. Скрыть...
Популярные аккорды Lynyrd Skynyrd:
алфавиту | просмотрам | случайно
  • G          D           Em
        If I leave here tomorrow,
    F               C            D
        Would you still remember me
    G              D           Em
        For I must be travelin on now
    F                         C…
  • Intro:
    
          D         C              G
                                                      
     E|----------------------------3------------------|
     B|-------3---------3----------0------------------|
     G|---------2-0-------0--------0------------------|…
  • Tunning: low to high (Eb, Ab, Db, Gb)
    
    
    A: Intro:
    (0:00)
    G|------------------12-14-------------------------------------------|
    D|--------------8---------12-14-12-10------------------------------|
    A|------10-/10---0--------------------12-(10)-12-10-12-(12)-0-2-3-|
    E|-12-9-------------------------------------------------------------|
    
    G|--------------12-14-----------------------------------------------|
    D|--------------------12-14-12-10--------------------------5-(5)---|
    A|-3-2------2-0--------------------12-(10)-12-10-12--0-2-3---------|
    E|-----3--3-------------------------------------------------------3-|…
  • Intro:
    
      (Guitar 1)
    |------------------------------|-----------------------------|
    |------------------------------|-----------------------------|
    |--7-7---7-7---7-------7-------|-2-2---2-2---2-------2-------|
    |--7-7---7-7---7-------7-------|-2-2---2-2---2-------2-------|
    |------9-----9-----7-9---7-9-0-|-----4-----4-----2-4---2-4-0-|
    |------------------------------|-----------------------------|…
  • Gtr. 1 (Elec) Clean Tone w/ Slide A                      E5     
    E---||---------------------------------|--------------------------------
    B---||---------------------------------|--------------------------------
    G---||-----13---/---1311--9--9/11~~~--|---------9---/13--1311--9------
    D---||---------------------------------|--9--11-----9-------------------
    A---||---------------------------------|--------------------------------
    E---||---------------------------------|--------------------------------…
  • INTRO: 
    									    
    E||-9---9-10-9-7---9-7-7-5--7-9------5-7-5---9---9-10-9-9-7---9-7---------
    H||-----------------------------7-----------------------------------------
    G||-----------------------------------------------------------------------
    D||-----------------------------------------------------------------------
    A||-----------------------------------------------------------------------
    E||-----------------------------------------------------------------------
    
    
    12-10---12-10---12-10||
    ------10------10-----||
    ---------------------||
    ---------------------||
    ---------------------||
    ---------------------||
    
    
    E||--------------------------------------------------------------------
    H||--------------------------------------------------------------------
    G||-6--4-6-4-2---6--4-6-4---6-4-6-4-6-4----2----------------2-4-6-6-4-2
    D||-----------------------2-------------4----0---0------2-4------------
    A||--------------------------------------------4----2-4----------------
    E||--------------------------------------------------------------------
    
    -----------------------------------0-----|
    -------------5-3---5-3---5-3---2-3---2---|
    -----------------2-----2-----2---------2-|
    -2-2-h4-2-0------------------------------|
    -----------------------------------------|
    -----------------------------------------|…
  • intro and verse riff                                                                    
    E-|-----|---------------------1-----------------------------------------------|
    B-|-----|---3-----3-----3~1-----1---------------------3-----3-----------------|
    G-|-5-7-|-----2-----2-------------0-----0-----0---------2-----2-----0---------|
    D-|-5-7-|-0-----0-----0-------------------0---------0-----0-----0-----0-------|
    A-|-3-5-|-------------------3-------3-----------0-2---------------------------|
    E-|-----|-----------------------------3-----3---------------------3-----3-----|…
  • Tuning: E A D G B e
    
    
       Verse
    e|---------------------------------------------------------------------------|
    B|---------------------------------------------------------------------------|
    G|------------------5------------------0--------0-----5----------------------|
    D|---5--7-7--5--7---5--7-7--5--7-----2---2----4---4---5--7-7--5--7-----------|
    A|---5--7-7--5--7---3--7-7--5--7---3--------5---------3--7-7--5--7-----------|
    E|---3--5-5--3--5------5-5--3--5-------------------------5-5--3--5-----------|…
  • Tuning: E A D G B e
    
          
    e|--------------------------------------------------------------------
    B|--------------------------------------------------------------------
    G|---------2---------2---------2---------2----------7-----7^^^p5------
    D|-----2-4-------2-4-------2-4-------2-4--------7-9-------------------
    A|-0-4-------0-4-------0-4-------0-4--------5-9-------5-9-------------
    E|--------------------------------------------------------------------
    
    e|--------------------------------------------------------------------|
    B|--------------------------------------------------------------------|
    G|---------2---------2-------------------7---------2--------4-4p6-----|
    D|-----2-4-------2-4-----------2-----7-9-------2-4--------2--------h4-|
    A|-0-4-------0-4-----------2-4---5-9-------0-4--------0-4-------------|
    E|---------------------0-4--------------------------------------------|
    
    e|---------------------------------------------------------------------
    B|---------------------------------------------------------------------
    G|---------2---------2----------2---------2---------7---------7--------
    D|-----2-4-------2-4--------2-4-------2-4-------7-9-------7-9----------
    A|-0-4-------0-4--------0-4-------0-4-------5-9-------5-9--------------
    E|---------------------------------------------------------------------
    
    e|--------------------------------------------------------------------|
    B|--------------------------------------------------------------------|
    G|---------2---------2-------------------7---------2---------2--------|
    D|-----2-4-------2-4-----------2-----7-9-------2-4-------2-4----------|
    A|-0-4-------0-4-----------2-4---5-9-------0-4-------0-4--------------|
    E|---------------------0-4--------------------------------------------|…
  • INTRO
    
    E----------------------------------------------------------|
    B----------------------------------------------------------|
    G----2------------5-------------7*b-7br--5-----------------|
    D----2------------5----5h7p5----------------7v--5----------|
    A----0-----3-5/7-------------7--------------------7/5-3----|
    E-------/5----------------------------------------------5~-|
    
    E------------------------------------------8/10/8----------|
    B--------------------------------8b~-------8/10/8----------|
    G-----7b-7*br--5---7b---7r---5-----------------------------|
    D----------------------------------------------------------|
    A----------------------------------------------------------|
    E----------------------------------------------------------|…
  • Tuning: Standard
    
    
    Intro:
    
    e|---------------------------------------------------------------------------|
    B|---------------------------------------------------------------------------|
    G|--------------2--2p---5--2-------2--2p---5----2--2p---5--2------5-2-4-2----|
    D|--------------2--2p---5--2-------2--2p---5----2--2p---5--2------5-2-4-2----|
    A|--/15/-----0--------0------3p0---------0----0-------0------3p0-------------|
    E|-------------------------------3-------------------------------3-----------|
    
    e|----------------------------------------------------------------------12----|
    B|-----------10~--12b-10-12-10------------10~-10~----12b-10-10-12b-10-12--12--|
    G|-----9--11------------------------9--11---------11--------------------------|
    D|-/11--------------------------/11-------------------------------------------|
    A|----------------------------------------------------------------------------|repeat-this-one-time
    E|----------------------------------------------------------------------------|…
  • Tuning: E A D G B e
    
    
                         Intro
    e|--------------------------------------------------------------------------|
    B|--------------------------------------------------------------------------|
    G|---/16---/16---16-/16---/16-----------------------------------------------|
    D|---/16---/16---16-/16---/16-----------------------------------------------|
    A|--------------------------------------------------------------------------|
    E|--------------------------------------------------------------------------|
    
    
    e|-------------------------------------------------------------------
    B|---12--12--14b----------------------------------------------------
    G|------------------14--11h14--11---9--7-----7--9--7--9brb-----------
    D|---------------------------------------------9---------------------
    A|-------------------------------------------------------------------
    E|-------------------------------------------------------------------
    
    e|--------------------------------|
    B|------------------------7-------|
    G|---9--7-----7--9--7----7--------|
    D|----------9-----------------9---|
    A|--------------------------------|
    E|--------------------------------|
    
    
    		Verse
    e|---------------------------------------------------------------------------
    B|---------------------------------------------------------------------------
    G|---------------------------------------------------------------------------
    D|---4--------------2-2--4---------------------------------------------------
    A|---2---5--4--2--0-0--2--2--------------------------------------------------
    E|----------------------------0----------------------------------------------
    
    e|---------------------------------------------------------------------------|
    B|---------------------------------------------------------------------------|
    G|---------------------------------------------------------------------------|
    D|---4--------------2--4--6--------------------------------------------------|
    A|---2---5--4--2--0--2--4--2-------------------------------------------------|
    E|-----------------------------0---------------------------------------------|
    
    
    		Chorus
    e|----------------------------------------------------------
    B|----------------------------------------------------------
    G|----------------------------------------------------------
    D|------------4-----2---------------------------------------
    A|--------0------0-----4------------------------------------
    E|-----2-------------------5---2----------------------------
    
    
    e|----------------------------------------------------------
    B|----------------------------------------------------------
    G|----------------------------------------------------------
    D|------------4-----2-------4---2h4-------------------------
    A|---------0-----0------4-----------------------------------
    E|------2---------------------------------------------------
    
    e|----------------------------------------------------------
    B|----------------------------------------------------------
    G|----------------------------------------------------------
    D|------------4-----2---------------------------------------
    A|--------0------0-----4------------------------------------
    E|-----2-------------------5---2----------------------------
    
    e|----------------------------------------------------------|
    B|----------------------------------------------------------|
    G|----------------------------------------------------------|
    D|------------4-----2------------9--------------------------|
    A|--------0------0-----4---------7--------------------------|
    E|-----2----------------------------------------------------|
    
    
    Solo…
  • intro                                  verse
      (x6)                                  (x3)(2nd verse=play until chorus) (x7)
    G|--------|---------------------------|--------------------------------|--------|------|
    D|--------|975--------9--------------|----0---0-----------0---02-0-2--|--------|20----|
    A|2-2-2-2-|---7-3---------------------|02---2---2-0-2--02---2----2-----|2-2-2-2-|--2---|
    E|--------|-------30----00-012-023-045|----------2---------------------|--------|---0--|…
  • INTRO:
                                 Bb7 A7                              Eb9
    D9
                         
    |---------5-5-|---------5-5----6--5--|---------5-5-|---------5-5---6--5-|
    |-----5-7-----|-----5-7--------6--5--|-----5-7-----|-----5-7-------6--5-|
    |-5-6---------|-5-6------------7--6--|-5-6---------|-5-6-----------6--5-|
    |-------------|----------------6--5--|-------------|---------------5--4-|
    |-------------|----------------8--7--|-------------|---------------6--5-|
    |-------------|----------------6--5--|-------------|--------------------|…
  • a
    billy joe told me now everything's lookin' fine 
                                                        e
    he got the place all secured got the icebox full of wine
                a
    he said now hurry on over and don't be late…
  • intro
    G|------------5-7----------------------|
    D|-----3--32---5--45-5-----5--71097-57|
    A|3345--5---5----7----7-57----------7--|
    E|-------------------------------------|
    
    
      verse
    G|----------------------------------------------------------------------------------------------
    D|7-7-----7-7-----5-5-----5/7-7-----7-7-----7-7----------------------7-7-----7-7-----5-5-----5/7
    A|---9-79----9-79----7-57------987-7---9-79----9-745-7-7----------------9-79----9-79----7-57----
    E|--------------------------------9-----------------0---9-79-0-2-3-4--------------------------0-
    
    -------------------------------|
    -3/5-7-7-----------------------|
    --------9-79----54-------------|
    -------------0-0--0205-53-03-5-|
    
    
    the…
  • Intro
    G|---------------------------------------------------------------------------------------
    D|---------------------------4-5-7---------------------------------4-5-7-10-8--------5---
    A|-5-5-R-3-3-R---0-2-3-5-5-7-------3-3---------0-2-3-5-5-------5-7------------10-5-7-----
    E|-------------3-----------------------0-1-2-3-----------7-5-7-------------------------3-…
  • G1 C1 = 1 Stroke G, 1 Stroke C
    AmIII = Am played on 3. fret
    CIII  =  C played on 3. fret
    
    
    Chords:
                 
         Am  AmIII  CIII   C     G     F
    |-----0-----0----0-----0-----3-----1----|
    |-----1-----3----3-----1-----0-----1----|
    |-----2-----4----0-----0-----0-----2----|
    |-----2-----4----4-----2-----0-----3----|
    |-----0-----0----5-----3-----2-----3----|
    |----------------------------3-----1----|
    
    
    Intro:…
  • 1. E---------------------------------------------------------------
       B---------------------------------------------------------------
       G-----2-----------2---------------------------------------------
       D-----------5----------------2----------------------------------…
  • intro				
    ---------------------------------------------------------------------------
    ----------------------------------------------------------------------------
    ----------------------------------------------------------------------------
    ---4--------0---4---0---------------------------------4-------0--4--0-------
    ---2----2---------------4---0-----------------2-------2----2-----------4---0
    -------------------------------------3^--^-----0----------------------------
    
    
    Verse
    Play…
  • Intro: D  C  
           G  D  Em C  G  D  C  
     
    Verse 1: 
               G              D  
    Well this life that I've lived 
         Em           C  
    Has took me everywhere 
      G                    D             C  
    There ain't…
  • [G]These old white lines on this highway
    [C]Lord is all I know[D]
    [G]Seems like I've been out here all my life
    [C]But I just can't let it go[D]
    
    
    CHORUS:
    [C]Oh, you know I ain't complaining
    [D]Cause I can't tell
    [G]Lord,…
  • e------------------------------------------------------------------|
    B-----------------x----------------x-------------x---------------------|
    G-----------------x----------------x-------------x-------4--2--4--7--7-|
    D----2-5^--2---2--x----2/(14)------x----2-5^-2-2-x----2----------------|
    A-2h4--------4----x-2h4------------x-2h4------4--x-2h4--2--2--2--0--0--|
    E----------------------------------------------------------------------|
    
    e----------------------------------------------------------------------|
    B---------x------------------------------------------------------------|
    G---------x-------2--0--2--5--7----------------------------------------|
    D--5^-2-2-x----2------------------5^-2---2-0--------------2~-----------|
    A------4--x-2h4-0--0--0--0--0----------4-----2---------2h4-------------|
    E-0-----------------------------0--------------3-0--/4-----------------|…
  • Сноrds: first is AM the D then EM u sноuld nо the fingers used.
          
    e|----0---0------2-2-------0---0------2-2--------------------------------------|
    B|----2---2------3-3-------0---0------3-3--------------------------------------|
    G|----2---2------2-2-------0---0------2-2--------------------------------------|
    D|----2---2------0-0-------2---2------0-0--------------------------------------|
    A|----0---0----------------2---2-----------------------------------------------|
    E|-------------------------0---0-----------------------------------------------|
    
    Thats…
  • intro
      ----------------------------------------------------------
      --x-x-x----------------x-x-x-----------------x-x-x-x------
      --x-x-x-----------5----x-x-x-------------5---x-x-x-x------
      --x-x-x-----------5----x-x-x-------------5----------------…
  • Intro:
    e:-----0------------------------0----------------|
    B:-0h2----------------------0h2-----0------------|
    G:--------3h4p3--1--------------------3-1--------|
    D:------------------------------------------5/6b-|
    A:---------------------2/4-----------------------|
    E:-----------------------------------------------|…
  • (drum intro begins song...)
    
    |-------|------------------------------|---------------------|
    |-------|------------------------------|---------------------|
    |-2-----|-2---2-------------2----------|----2---------------2|
    |-x-----|------------------------------|--------------------x|
    |-3-----|-0---0---0h3h4-0---0---0h3h4-0|----0---0h3h4-0-----3|
    |-------|------------------------------|---------------------|
    
    |------------------------------|-------------------------|
    |------------------------------|-------------------------|
    |-2---2-------------2----------|----2---2-2---2---------9|
    |------------------------------|------------------7-----9|
    |-0---0---0h3h4-0---0---0h3h4-0|----0---0-0---0---5-----7|
    |------------------------------|------------------5------|
    
    
    Guitar…
  • Tuning: Standard (EADG)
                         
      					Intro  (2x)
    G|-------------|-----------------------------------|
    D|----REST-----|----------------------0-2p0--------|
    A|-6-MEASURES--|----------------2-0-2-------2p0----|
    E|-------------|-0-0-00-3-0-3-0-----------------3--|…
  • Tuning: E A D G B e
    
    e|--------------------------------------------------------------------|
    B|--------------------------------------------------------------------|
    G|----------2-6-7-7--2-4-5-5-5-3--------------------------------------|…
  • the D riff:
    
    -------3p2--2--|
    -------3----3--|
    -------2----2--|
    -----0------0--| and so on
    -0h2-----------|
    ---------------|
    
    D
    
    D
    I recall when I used to come home, never had a dime
     C                         G
    Lord, I…
  • verse riff           bridge                      chorus
    G|-------------------|------------------------3---|----------------------------------------------
    D|-------------------|--------------------53-0-53-|----5-5-----5------------------345-555-5-44-3-
    A|5-----353-----3-5--|---353-2-0---5-555-5--5----3|--------------023-333-3-3-35/7----------------
    E|---035-----035-----|035--------3----------------|5-55----5-55----------------------------------…
Наверх