Аккорды Любэ - Берёзы

Добавлено: @vitos
Дата добавления: 16 Марта 2013г.
Рейтинг:
5.0
Просмотров: 1 249
Проигрыш:

E|-----1-0-1-3-1-0---0-1-3-1-0---0-1-3-1-0---------0-1---3---5-|
B|----3------------3-----------3-----------3-------------------|
G|---2---------------------------------------------------------|
D|--0----------------------------------------------------------|
A|-------------------------------------------------------------|
E|-------------------------------------------------------------|

Hm               G     A      D  Hm
Отчего так в России березы шумят
              G        A      D  H7
Отчего белоствольные все понимают
     Em        F#                 G
У дорог прислонившись по ветру стоят
Em              F#       Hm
И листву так печально кидают

H7    Em      A        D      G
А на сердце опять горячо горячо
Em      F#      G
И опять и опять без ответа
H7    Em        A      D         G
А листочек с березки упал на плечо
      Em      F#       Hm
Он как я оторвался от веток

Cm           G#        A#     D#
Отчего так в России березы шумят
Cm         G#         A#      D# C7
Отчего хорошо так гармошка играет
       Fm          G                  G#
Пальцы ветром по кнопочкам в раз пролетят
     Fm     G       Cm
А последняя эх западает

C7    Fm      A#       D#    G#
А на сердце опять горячо горячо
   Fm       G          G#
И опять и опять без ответа
C7   Fm         A#     D#        G#
А листочек с березки упал на плечо
      Fm      G        Cm
Он как я оторвался от веток

Проигрыш в конце песни:

E|-------1-0-1-3-1-0---0-1-3-1-0---0-1-3-1-0-1-0---0-----------|
B|------3------------3-----------3---------------3---3--1------|
G|-----2-------------------------------------------------------|
D|----0--------------------------------------------------------|
A|-------------------------------------------------------------|
E|-------------------------------------------------------------|

E|-----1-0-1-3-1-0---0-1-3-1-0---0-1-3-1-0-1-0---0----------1--|
B|----3------------3-----------3---------------3---3--1----3---|
G|---2----------------------------------------------------2----|
D|--0----------------------------------------------------0-----|
A|-------------------------------------------------------------|
E|-------------------------------------------------------------|
Музыка глушит печаль (Шекспир)
Мы стремимся к созданию контента, соответствующего всем нормам законодательства и уважающего интеллектуальную собственность. Мы также придаем большое значение тому, чтобы не задеть никого и не оскорбить чьи-либо чувства. Если у вас есть вопросы или претензии по размещенному материалу, пожалуйста, сообщите нам об этом на указанный адрес электронной почты: [email protected].
Шрифт
-
0
+
Прокрутка
-
0
+
Стоп
Наверх