Аккорды Mac DeMarco - A Heart Like Hers

Добавлено: @romashka
Дата добавления: 06 Июня 2024г.
Рейтинг:
0.0
Просмотров: 34
[Intro]
e|11--------11--------------------------------------------------|
B|--------------------------------------------------------------|
G|----13--------11--------14-/15--------------15-/18--15--------|
D|--------------------------------13----------------------------|
A|--------------------------------------------------------------|
E|--------------------------------------------------------------|

e|11--------11--------------------------------------------------|
B|--------------------------------------------------------------|
G|----13--------11--------14-/15--------------15-/18--15--------|
D|--------------------------------13----------------------------|
A|--------------------------------------------------------------|
E|--------------------------------------------------------------|

[Chorus]
e|11------11------11------11--12----------14------12--11----10--|
B|--------------------------------------------------------------|
G|----13------13------11----------11----------13----------------|
D|--------------------------------------------------------------|
A|--------------------------------------------------------------|
E|--------------------------------------------------------------|

e|11------11------11------11--12----------14------12--11----10--|
B|--------------------------------------------------------------|
G|----13------13------11----------11----------13----------------|
D|--------------------------------------------------------------|
A|--------------------------------------------------------------|
E|--------------------------------------------------------------|

e|11------11------11------11--12----------14------12--11----10--|
B|--------------------------------------------------------------|
G|----13------13------11----------11----------13----------------|
D|--------------------------------------------------------------|
A|--------------------------------------------------------------|
E|--------------------------------------------------------------|

e|11------11------11------11--12----------14------12--11----9---|   
B|--------------------------------------------------------------|       
G|----13------13------11----------11----------13----------------|      
D|--------------------------------------------------------------|
A|--------------------------------------------------------------|
E|--------------------------------------------------------------|

[Instrumental]
e|11--------11--------------------------------------------------|
B|--------------------------------------------------------------|
G|----13--------11--------14-/15--------------15-/18--15--------|
D|--------------------------------13----------------------------|
A|--------------------------------------------------------------|
E|--------------------------------------------------------------|

e|11--------11--------------------------------------------------|
B|--------------------------------------------------------------|
G|----13--------11--------14-/15--------------15-/18--15--------|
D|--------------------------------13----------------------------|
A|--------------------------------------------------------------|
E|--------------------------------------------------------------|

[Chorus]
e|11------11------11------11--12----------14------12--11----10--|
B|--------------------------------------------------------------|
G|----13------13------11----------11----------13----------------|
D|--------------------------------------------------------------|
A|--------------------------------------------------------------|
E|--------------------------------------------------------------|

e|11------11------11------11--12----------14------12--11----10--|
B|--------------------------------------------------------------|
G|----13------13------11----------11----------13----------------|
D|--------------------------------------------------------------|
A|--------------------------------------------------------------|
E|--------------------------------------------------------------|

e|11------11------11------11--12----------14------12--11----10--|
B|--------------------------------------------------------------|
G|----13------13------11----------11----------13----------------|
D|--------------------------------------------------------------|
A|--------------------------------------------------------------|
E|--------------------------------------------------------------|

e|11------11------11------11--12----------14------12--11----9---|   
B|--------------------------------------------------------------|       
G|----13------13------11----------11----------13----------------|      
D|--------------------------------------------------------------|
A|--------------------------------------------------------------|
E|--------------------------------------------------------------|

************************************

| /  Slide up

************************************
Музыка глушит печаль (Шекспир)
Мы стремимся к созданию контента, соответствующего всем нормам законодательства и уважающего интеллектуальную собственность. Мы также придаем большое значение тому, чтобы не задеть никого и не оскорбить чьи-либо чувства. Если у вас есть вопросы или претензии по размещенному материалу, пожалуйста, сообщите нам об этом на указанный адрес электронной почты: [email protected].
Шрифт
-
0
+
Прокрутка
-
0
+
Стоп
Наверх