Аккорды Mac DeMarco - Little Dogs March

Добавлено: @romashka
Дата добавления: 06 Июня 2024г.
Рейтинг:
0.0
Просмотров: 29
[Intro]
 
e|---------------------------------------------------|-----------------------|
B|---0-----------------------------------------------|-----------------------|
G|-----0------------0--------------------------------|-----------------------|  x1
D|-------0--2-3-2 3----2--------------3---3------5---|--5--------------------|
A|-----------------------3------------3---3------5---|--5---x14--------------|
E|--------------------------3---5----------------3---|--3--------------------|

e|--------------------------------------------------|-------------------------|
B|--0------------------0-0--------------------------|-------------------------|
G|----0---------3-2-3------0------------------------|-------------------------|  x1
D|------0--2------------------2--------3--3-----5---|--5----------------------|
A|------------------------------3------3--3-----5---|--5---x14----------------|
E|----------------------------------------------3---|--3----------------------|

[Verse 1]
e|---------------------------------------------------|-----------------------|
B|---0-----------------------------------------------|-----------------------|
G|-----0------------0--------------------------------|-----------------------|
D|-------0--2-3-2 3----2--------------3---3------5---|--5--------------------| x1
A|-----------------------3------------3---3------5---|--5---x14--------------|
E|--------------------------3---5----------------3---|--3--------------------|

Hope you had your fun, All those days are over now

e|--------------------------------------------------|-------------------------|
B|--0------------------0-0--------------------------|-------------------------|
G|----0---------3-2-3------0------------------------|-------------------------|  x1
D|------0--2------------------2--------3--3-----5---|--5----------------------|
A|------------------------------3------3--3-----5---|--5---x14----------------|
E|----------------------------------------------3---|--3----------------------|
The sunset's at the skyline, say goodnight and kindly take your bow

[Chorus]

e|---------------------------3----------------------------------------------------|
B|---0--------1----0---3--5-----------------0-------------1----------0--3-5-------|
G|-----0--------3------------------------------0-------------3--------------0-----|  x1
D|-------0----------------------------------------0-------------------------------|
A|--------------------------------------------------------------------------------|
E|--------------------------------------------------------------------------------|

March on, little doggy;                      March on, little dog

[verse 2]
e|---------------------------------------------------|-----------------------|
B|---0-----------------------------------------------|-----------------------|
G|-----0------------0--------------------------------|-----------------------|
D|-------0--2-3-2 3----2--------------3---3------5---|--5--------------------| x1
A|-----------------------3------------3---3------5---|--5---x14--------------|
E|--------------------------3---5----------------3---|--3--------------------|
Hope you got your fill,  All those days are over now

e|--------------------------------------------------|-------------------------|
B|--0------------------0-0--------------------------|-------------------------|
G|----0---------3-2-3------0------------------------|-------------------------|  x1
D|------0--2------------------2--------3--3-----5---|--5----------------------|
A|------------------------------3------3--3-----5---|--5---x14----------------|
E|----------------------------------------------3---|--3----------------------|

The river's all dammed up, So fill your cup and kindly take your bow

[Chorus]
e|---------------------------3----------------------------------------------------|
B|---0--------1----0---3--5-----------------0-------------1----------0--3-5-------|
G|-----0--------3------------------------------0-------------3--------------0-----|  x2
D|-------0----------------------------------------0-------------------------------|
A|--------------------------------------------------------------------------------|
E|--------------------------------------------------------------------------------|
And march on, little doggy March on, little dog March on, little doggy March on, little dog
Музыка - прекрасный способ стирания мыслей, плохих и не очень, самый лучший и самый давний (Мариам Петросян)
Мы стремимся к созданию контента, соответствующего всем нормам законодательства и уважающего интеллектуальную собственность. Мы также придаем большое значение тому, чтобы не задеть никого и не оскорбить чьи-либо чувства. Если у вас есть вопросы или претензии по размещенному материалу, пожалуйста, сообщите нам об этом на указанный адрес электронной почты: [email protected].
Шрифт
-
0
+
Прокрутка
-
0
+
Стоп
Наверх