Аккорды «Mad Caddies»

Mad Caddies
Основатели, Чак Робертсон, Саша Лейзор, Тод Розенберг, Картер Бенсон и Джеймс Мэлис, организовали группу в школе, но состав часто менялся. Барабанщик Тод Розенберг покинул команду в 1999, Бенсон в 2002 и басист Марк Айверсен в 2006. Текущий состав: Чак Робертсон (вокалист, ритм-гитарист, автор слов) Брайан Фленникен (барабанщик) Саша Лейзор (ведущий гитарист, банджо) Кейт Дуглас (трубач и вокалист) Эд Хернандес (тромбонист) Крис Бэдхем (басист) Команда играла под названием The Ivy League,… Читать полностью... Основатели, Чак Робертсон, Саша Лейзор, Тод Розенберг, Картер Бенсон и Джеймс Мэлис, организовали группу в школе, но состав часто менялся. Барабанщик Тод Розенберг покинул команду в 1999, Бенсон в 2002 и басист Марк Айверсен в 2006. Текущий состав: Чак Робертсон (вокалист, ритм-гитарист, автор слов) Брайан Фленникен (барабанщик) Саша Лейзор (ведущий гитарист, банджо) Кейт Дуглас (трубач и вокалист) Эд Хернандес (тромбонист) Крис Бэдхем (басист) Команда играла под названием The Ivy League, но в 1996 поменяла его после подписания контракта с лейблом Honest Don's Records, чтобы избежать конфликта с двумя другими группами с таким же названием. Дебютный альбом Quality Soft Core был выпущен в следующем году. После его выхода команда была подписана на лейбл Фэт Майка Fat Wreck Chords, где выпустила 4 полноформатника, EP и живой альбом. Совершенно потрясающий и во всех отношениях забойный ансамбль! Они в очередной раз подтверждают истину: «Американцы знают толк в дудках!». Радует в них практически все: потрясающая духовая секция, забойные гитарные рифы, великолепный вокал и тексты. Поражает воображение и жанровое многообразие «Кеддисов». Играют все: от свинга до жесткого и ритмически бешенного СКА-Панка. Музыка под любое настроение. От безудержного веселья, панковского пофигизма и энергетики до Безысходности, депрессии, одиночества. На них можно и нужно подсесть надолго. Они чертовски великолепны. Рекомендуется ВСЕМ! Скрыть...
Популярные аккорды Mad Caddies:
алфавиту | просмотрам | случайно
  • {Bass Tab}
    
    Intro
    G|---2---3---5-2>----2---3---5-----|
    D|-3-------3-------3-------3---3>--|
    A|-----5---------------5-----------|
    E|---------------------------------|
    
    Verse 1                   X2
    G|-------------------------|
    D|-------3---3----3---3----|
    A|-7>-5>---3---3-3--3---3-3|
    E|-------------------------|
    
    Verse…
  • % = pause 
    x= don't play 
    
       
      AFTER BASS & VOCAL INTRO   
    E|-------------------------------------------------------------------------| 
    B|-------------------------------------------------------------------------| 
    G|------9--9--9------------------------------------------------------------|…
  • chords :
    
      G  |  C  |  F  |  G
    
      D  |  G  |  C  |  G
    
    
    Riff 2 :
    
    Guitare 1
    E----------po-----------h-----------po------------
    B---------/-----------/----------/-------------
    G---7-7---5--4---------2--4--5-5---4--2-----------
    D----------------5-5-----------------------5-5----
    A-------------------------------------------------
    E-------------------------------------------------
    
    Guitare2…
  • Intro
    e|-------------------8------------------------8---------------------
    B|---------------8-------8----------------8-------8--------------4--
    G|-----------9---------------9--------9---------------9-------5-----
    D|------10-----------------------10-----------------------6---------
    A|------------------------------------------------------------------
    E|------------------------------------------------------------------
    
    e|---4------------------------3---------------------|
    B|-------4----------------3-------3-----------------|
    G|-----------5--------4---------------4-------------|
    D|---------------5----------------------------------|
    A|--------------------------------------------------|
    E|--------------------------------------------------|
    
    Chorus…
  • Intro:
    e:-------------------------------
    B:-------------------------------
    G:-------5----5-5-5-7----5-5-7-7-
    D:-5-----5----5-5-5-7----5-5-7-7-
    A:-5-----3----3-3-3-5----3-3-5-5-
    E:-3-----------------------------…
  • > means strum
    
    Intro:
    G-------------6-7------------6-7-9-7---------------
    D----4-5--7-7-------4-5--7-7-----------------------
    A--5--------------5--------------------------------
    E--------------------------------------------------
    
    G-------------6-7----------------------------------
    D----4-5--7-7-------4-5--7-7-5-4-------------------
    A--5--------------5--------------7-----------------
    E--------------------------------------------------
    
    Intro…
  • INTRO
       F   A   Bb  F
    E--1---5---6---1-------------|
    B--1---5---6---1-------------|
    G--2---6---7---2---acoustic--|
    D--3---7---8---3------X2-----|
    A--3---7---8---3-------------|
    E--1---5---6---1-------------|
    
    
    VERSES…
  • Intro & verses:
    
      F  |  Dm  |  G  /  C |  F  |   x2
      F - D# - D - C#  |  F   |  F  |
    
    
    Slow part:
    
     C - B - Bb 
     A |  Dm  |   G  |  C - B - C
     A |  Dm  |   C# - C - C# - C - C# - F
    
    Final:
    
     F - D# - D - C# - C - F
    
    
    
  • INTRO
    G|-------------|
    D|-------------|
    A|2---2---2---2|
    E|-------------|
    
    MAIN  (2X)                     * PLAY 8X
    G|-------------------------|-----------------------|--------------------------|-------|
    D|---0--2-0-3-3-3-3-3-3-2-0|---0-2-0-3-5-3-2-3-2-0-|---0--2-0-3-3-3-3-3-3-2-0-|--*-*--|
    A|-2-----------------------|-2---------------------|-2------------------------|-2/14-|
    E|-------------------------|-----------------------|--------------------------|-------|
    
    BRIDGE1
    G|--*-*-*-*--------------------|
    D|-0-0-0-0--*----0-3--*----0-3-|
    A|---------2-2-2-----2-2-2-----|
    E|-----------------------------|
    
    BRIDGE2
    G|------------2X------------------------|-----------|--------------------------------|
    D|3-3-3-1-0---3-3-3-1-0---3-3-3-1-0-----|-----------|3-3-3-1-0---3-3-3-1-0-----------|
    A|----------------------------------2-2-|-----------|--------------------------------|
    E|--------------------------------------|-3----5----|----------------------3----5----|
    
    MAIN(3X)
    BRIDGE1…
  • INTRO	12 sec...
    
    G------------------------------------------------------------------------------
    D------------------------------------------------------------------------------
    A------------------------------------------------------------------------------
    E------------------------------------------------------------------------------
    
    VERSE…
  • Intro & verses:
    
      D  |  Bm 
    
    
    Bridge : 
    
     G  |  D   x2
    
    Chorus :
    
     A  |  D  |      x2
     G  |  D  |  A  
    
    
  • intro & verses:
    
     E  |  Eb  |  E  
     Ab |  C#m |
     F#  /   B |
     E  |  A   |  E  |  B  |
    
    
    bridge:
    
     Ab |  C#m |  A  |  E  
     Ab |  C#m |  A  |  B
    
    
    chorus:
    
     E  |  Ab  |  C#m  /  C  |    B
    
    
    final : (after the last chorus )…
  • INTRO/CHORUS
    
    G;----------------------------------------
    D:----------------------------------------
    A:-77777-55555-------------77777-55555----
    E:-------------55555-55555-------------5>-  X1
    
    VERSE
    
    G;---------------------------------
    D:---------------------------------
    A:-7-7-55-4-4-4-44-----44----------
    E:-----------------7-7----5-5-5-55-…
  • VERSE
    
    G:---------------------
    D:---------------------
    A:-3---3---3---3-----2-
    E:---3---3---3---3-5---    X8
    
    PRE-CHORUS
    
    G:------------------------------|-------
    D:------------------------------|-------
    A:------------------------------|-8-7-5-
    E:------------------------------|-------
    
    
    CHORUS
    
    G:-----------------
    D:---3>-2----------
    A:-3>-----3>-8-7-5-
    E:-----------------…
  • Chords:
        A  E  B  F#  
    e|--------------------------------|
    B|--------------------------------|
    G|--2-----4-----------------------|
    D|--2--2--4--4--------------------|
    A|--0--2--2--4--------------------|
    E|-----0-----2--------------------|
    
    Verse:
    A…
  • INTRO
    
    G:-----------
    D:-----------
    A:-5---------
    E:---5-2>-3>-  X2
    
    PRE-VERSE
    
    G:-----------
    D:-----------
    A:-5>---2>---
    E:---5>---3>-
    
    VERSE        SKA PART                    PUNK PART
    
    G:-------------------------------|-------
    D:--------------------4-2-----4-2|-------
    A:----2-4-----2-4-2-2-----2-2----|-------
    E:2-2-----2-2--------------------|-3>-5>-…
  • intro :   Dm
    
    verses:   Dm  |  C
              Dm  |  F  |  G  |  A
              Dm  |  F  |  G  |  Dm
              Dm  |  F  |  G  |  A
    
              Dm  |  C  |  A
              Dm  |  C  |  Dm  |  A  |  
    ( ...if i had my way ... )…
  • |-------------------------------------------------------------|
    |-------------------------------------------------------------|
    |-------------------------------------------------------------|
    |-------------------------------------------------------------|
    |-------------------------------------------------------------|
    |--0--0--0--2-3-7-5--5--5-3-5-6-7--7--7-5-3-2-0--0--0-0-0-0---|
    
    |-------------------------------------------------------------|
    |-------------------------------------------------------------|
    |-------------------------------------------------------------|
    |-------------------------------------------------------------|
    |-------------------------------------------------------------|
    |--0--0--0--2-3-7-5--5--5-3-5-6-7--7--7-5-3-2-0--0--0-0-0-0---|…
  • Main Intro/Verse Riff -
    |--------------------|-----------------------------------|
    |*--------2-2-2---2-*|--------4-4-4-0-4--------0-0-0-----|
    |*-0-0--0-------4---*|-2-2--2-----------2-2--2-------4-2-|
    |--------------------|-----------------------------------|
    
    Another…
  • TUNING: Standard (EADGBe)
    KEY: F (Gm Am Bb C Dm Eo)
    CHORDS: Fsus - 133311 or xx3311	
    	A7sus - x02030
    
    PIANO RIFF:         
    e|-------------------------------------------------|
    B|--10-10--8-8--6---6-6--5-5--3---3-3--1-1---------|
    G|--10-10--9-9--7---7-7--5-5--3---3-3--2-2--3-3--2-|
    D|------------------------------------------5-5--0-|
    A|-------------------------------------------------|
    E|-------------------------------------------------|…
  • INTRO & CHORUS :
    
         |   G   |    Em  |    G   |   Em   | (G) |   C  |
                                               о
                                            not the first time
    
    VERSES:
    
      
        |   G   |    D  |    F   |…
  • G------------------------------------------------------------------|
    D------------------------------------------------------------------|
    A-------------6--4--4--4--6--7--7--6--4-5-4------------------------|
    E--4--4--7------------------------------------7--2-2---2/4--4--7---|
    
    G------------------------------------------------------------------|
    D------------------------------------------------------------------|
    A--6----4--4--4--6*------------------------------------------------|
    E------------------------2-2---2*---2-2-2-2------------------------|…
  • Chords:
    
          d       G       C       D(5)    G(5)
    e|----5-------3-------3---------------------|
    B|----6-------3-------5---------------------|
    G|----7-------4-------5-------7-------------|
    D|----7-------5-------5-------7-------5-----|
    A|----5-------5-------3-------5-------5-----|
    E|----5-------3-------3---------------3-----|
    
    
    Solo:…
Наверх