Аккорды Martin Garrix - Byte

Добавлено: @romashka
Дата добавления: 11 Февраля 2024г.
Рейтинг:
0.0
Просмотров: 132
[Intro]

e|-3-3-3-3-1---------------1---------------------------------|
B|-----------3---3-1-3-1-3-----------------3---------------3-|
G|---------------------------3---3-2-3-2-3---0---0---0-2-3---|
D|-------------------------------------------------3---------|
A|-----------------------------------------------------------|
E|-----------------------------------------------------------|

e|-3-3-3-5-1---------------1---------------------------------|
B|-----------3---3-1-3-1-3-----------------3---------------3-|
G|---------------------------3---3-2-3-2-3---0---0---0-2-3---|
D|-------------------------------------------------3---------|
A|-----------------------------------------------------------|
E|-----------------------------------------------------------|

[Drop]

e|-3-3-3-3-1---------------1---------------------------------|
B|-----------3---3-1-3-1-3-----------------3---------------3-|
G|---------------------------3---3-2-3-2-3---0---0---0-2-3---|
D|-------------------------------------------------3---------|
A|-----------------------------------------------------------|
E|-----------------------------------------------------------|

e|-3-3-3-5-1---------------1-------------------------------1-|
B|-----------3---3-1-3-1-3-----------------3-------------3---|
G|---------------------------3---3-2-3-2-3---0---0-----0-----|
D|-------------------------------------------------3-3-------|
A|-----------------------------------------------------------|
E|-----------------------------------------------------------|		
Музыка не только фактор облагораживающий, воспитательный. Музыка – целитель здоровья (Бехтерев)
Мы стремимся к созданию контента, соответствующего всем нормам законодательства и уважающего интеллектуальную собственность. Мы также придаем большое значение тому, чтобы не задеть никого и не оскорбить чьи-либо чувства. Если у вас есть вопросы или претензии по размещенному материалу, пожалуйста, сообщите нам об этом на указанный адрес электронной почты: [email protected].
Шрифт
-
0
+
Прокрутка
-
0
+
Стоп
Наверх