Аккорды Маруся Пишет Стихи - Fuck Love

Добавлено: @romashka
Дата добавления: 09 Июня 2019г.
Рейтинг:
0.0
Просмотров: 71
Транспонировать - +
Вступление:
E|-----------|--------|-----------|--------|
B|-----------|--------|-----------|--------|
G|-----------|--------|-----------|--------|
D|-----------|--------|-----------|--------|
A|-0--3--3-2-|-0------|-0--3--3-2-|-0------|
E|------4----|--4-0---|------4----|--4-0---| x4

Припев:
Am Dm
Убегай, забывай,
Am Dm
Не смотри, отнимай!

Am Dm 
Мои ошметки чести, да совести.
Am Dm 
В жизни нет печальнее повести,
Am Dm 
Чем потеря близкого в молодости.

Am

Am Dm
Убегай, забывай,
Am Dm
Не смотри, отнимай!

Am Dm 
Мои ошметки чести, да совести.
Am Dm 
В жизни нет печальнее повести,
Am Dm 
Чем потеря близкого в молодости.

Am

Куплет:
Am
Я проливал свои слёзы,
Dm
Когда прошли мои грёзы,
Am
Собирая осколки,
Dm
Пропуская иголки.

Am
Нередко средь веселья,
Dm
Страдал от безделья.
Am
Здесь шутки неуместны,
Dm
Хотя были бы прелестны.

Am Dm
Я не люблю, прости, прощай...
Am
Меня скорее забывай.
Dm
Не хочу, чтобы ты знала
Am Dm Am
Кто я!

Dm 
Душа скрылась в mp3,
Am Dm
Ей снова больно, (не смотри!)
Am Dm
Битлджус мой новый друг.
Am Dm
И он излечит мой недуг. Я... я... я...

Am
 
Припев:
Am Dm
Убегай, забывай,
Am Dm
Не смотри, отнимай!

Am Dm 
Мои ошметки чести, да совести.
Am Dm 
В жизни нет печальнее повести,
Am Dm 
Чем потеря близкого в молодости.

Am Dm 
Мои ошметки чести, да совести.
Am Dm 
В жизни нет печальнее повести,
Am Dm 
Чем потеря близкого в молодости.

Am Dm

Outro:
E|-----------|-------|-----------|--------|
B|-----------|-------|-----------|--------|
G|-----------|-------|-----------|--------|
D|-----------|-------|-----------|--------|
A|-0--3--3-2-|-0-0---|-0--3--3-2-|-0------|
E|------4----|--4----|------4----|--4-0---| x4
comments powered by Disqus
Наверх