Аккорды «Matchbook Romance»

Matchbook Romance
История группы «Matchbook Romance» началась в 1997 году, в Покипси (Poughkeepsie), Нью Йорк, когда Ryan Kienle (бас), Andrew Jordan (вокал, гитара), Aaron Stern (барабаны) и Ryan “Judas” Depaolo (гитара) собрались под вывеской «Getaway». Объединив все свои дизайнерские и компьютерные навыки музыканты создали собственный веб-сайт для продвижения своего творчества в массы. После того, как участники группы разместили свои треки на всевозможных сайтах, подобных mp3.com, и отыграли несколько концертов… Читать полностью... История группы «Matchbook Romance» началась в 1997 году, в Покипси (Poughkeepsie), Нью Йорк, когда Ryan Kienle (бас), Andrew Jordan (вокал, гитара), Aaron Stern (барабаны) и Ryan “Judas” Depaolo (гитара) собрались под вывеской «Getaway». Объединив все свои дизайнерские и компьютерные навыки музыканты создали собственный веб-сайт для продвижения своего творчества в массы. После того, как участники группы разместили свои треки на всевозможных сайтах, подобных mp3.com, и отыграли несколько концертов на территории северо-востока Америки, группой заинтересовался шеф знаменитого лэйбла «Epitaph Records» Brett Gurewitz, который услышал демо группы на сайте punknews.org. Вслед за этим, Brett Gurewitz связался с фронтменом Andrew Jordan и предложил музыкантам контракт. Прописавшись на панк-лэйбле «Epitaph Records» группе пришлось сменить свое прежнее название «Getaway» на «Matchbook Romance» ввиду некоторых юридических споров. Вслед за этим, Brett Gurewitz выступил в качестве продюсера дебютного ЕР «West For Wishing», который был выпущен в апреле 2003 года. После ряда гастрольных туров, музыканты «Matchbook Romance» в компании с продюсером Joe Barresi (Weezer, Pennywise) записали свой первый лонгплэй «Stories And Alibis», который был издан спустя пять месяцев с момента релиза дебютного ЕР. После этого группа «Matchbook Romance» возобновила концертную деятельность, а так же выпустила Сплит с группой «Motion City Soundtrack», прежде чем на свет появился очередной лонгплэй «Voices», в феврале 2006 года. 3-12-07 участники группы разместили на myspace.com официальное заявление о том, что группа "Matchbook Romance" прекратила свое существование. Скрыть...
Популярные аккорды Matchbook Romance:
алфавиту | просмотрам | случайно
  • Gtr. 1 - Intro (4x’s)
    
    [---------------------------]  
    [---------------------------]
    [-----8-9---8-9---8-9---8-9-]  
    [---9-----9-----9-----9-----]  
    [-7-------------------------]
    [---------------------------]
    
    Gtr. 2 - Intro…
  • Tuning: 1/2 step down (Eb, Ab, Db, Gb, Bb, eb)
    
    
    gtr. 1 intro / verse                                                                       
    ------------------------------|
    ------------------------------|
    --6-------------6-------------|
    --6-(x6)-7------6-(x6)-5------|
    --4------7-(x6)-4------5-(x6)-|
    ---------5-------------7------|
    
    
    gtr.…
  • E----------------------------------------------------------------------|
    B----------------------------------------------------------------------|
    G--------13--11-9--------------13-11-9--8------------------------------|
    D-2-2----13--11-9-------9-9----13-11-9--8------------13--11-9----------|
    A-2-2----11--9--7-------9-9----11-9--7--6---11-11----11--9--7----------|
    e-0-0-------------------7-7-----------------9--9-----------------------|
    
    E-----------------------------------------|
    B-----------------------------------------|
    G-----------------------------------------|
    D--7-77777777777777-----------------------|
    A--7-77777777777777-----------------------|
    e--5-55555555555555-----------------------|…
  • Both guitar dropped D
    
    Intro
    Guitar 1
    -----------------------------------
    -----------------------------------
    -----------------------------------
    ---------10-10---------------------
    -----8-8-----------8-8-11-9-------- x2
    -8-8-----------8-8-----------------
    P.M................................
    
    
    -----------------------------------
    -----------------------------------
    -----------------------------------
    -------------13-13------------11-10
    -------11-11------------11-11------…
  • Tuning: Both guitar half a step down : Eb Ab Db Gb Bb Eb
    
    
    Bass Intro
    
    
    Verse1
    
    Guitar 1
    
    e|------------------------------------------------------------------|
    B|-----------------------------------------------------7------------|
    G|-------------7-----7-----7-----7-----7-----7-----7-----7----------|
    D|---------------7-----7-----7-----7-----7-----7-----7-----7--------|
    A|-5-5-5-5-5-5-----5-----5-----5-----5-----5-----5-----------5------|
    E|------------------------------------------------------------------|
    
    e|------------------------------------------------------------------|
    B|---------------------------------------5h7------------------------|
    G|---7-----7-----7-----7-----7-----7--------------------------------|
    D|-----7-----7-----7-----7-----7-----7-------7----------------------|
    A|-5-----5-----5-----5-----5-----5-----5-------5--------------------|
    E|------------------------------------------------------------------|
    
    e|------------------------------------------------------------------|
    B|-----------------------------------------7------------------------|
    G|-7-----7-----7-----7-----7-----7-----7-----7----------------------|
    D|---7-----7-----7-----7-----7-----7-----7-----7--------------------|
    A|-----5-----5-----5-----5-----5-----5-----------5------------------|
    E|------------------------------------------------------------------|
    
    e|------------------------------------------------------------------|
    B|------------------------------------------------------------------|
    G|---7-----7-----7-----7-----7-----7------7-------7-7-7-7-7-7-------|
    D|-----7-----7-----7-----7-----7-----7----7-|x12|-7-7-7-7-7-7-------|
    A|-5-----5-----5-----5-----5-----5-----5--5-------4-4-4-4-4-4-------|
    E|------------------------------------------------------------------|…
  • Both guitar dropped D
    
    Intro
    Guitar 1
    -----------------------------------
    -----------------------------------
    -----------------------------------
    -8-8~--8-8~--888-888-888-888-------
    -8-8~--8-8~--888-888-888-888-------
    -8-8~--8-8~--888-888-888-888-------
    
    
    Verse…
  • Heres the only chords in the song
    
    e-3--3--3--3------------------------------------
    B-3--3--3--3------------------------------------
    G-0--0--0--2------------------------------------
    D-0--2--2--0------------------------------------
    A-2--3--2--0------------------------------------
    E-3-----0--2------------------------------------…
Наверх