Аккорды Maître Gims - J'me Tire

Добавлено: @romashka
Дата добавления: 16 Апреля 2018г.
Рейтинг:
0.0
Просмотров: 16
Транспонировать - +
Intro: 
  C#m              E  /  B          C#m              E  /  B 
1)-4-----------5---4----------2------4-----------5---4----------2---
2)---5-------5-------5------4---4------5-------5-------5------4---4-
3)-----6---6-----------4-----------------6---6-----------4----------
4)------------------------2---------------------------------2-------
5)-4---------------7-----------------4---------------7--------------

Refrain:
     C#m 
J'me tire, me demande pas pourquoi j'suis parti sans motif
E     /     B 
Parfois je sens mon cœur qui s'endurcit
C#m
C'est triste à dire mais plus rien n'm'attriste
E     /     B
Laisse-moi partir loin d'ici
C#m
Pour garder l'sourire, je me disais qu'y'a pire
E       /      B
Si c'est comme ça, bah fuck la vie d'artiste
C#m
Je sais qu'ça fait cliché d'dire qu'on est pris pour cible
E      /     B 
Mais j'veux l'dire juste pour la rime

Pont:
C#m
J'me tire dans un endroit où j'serai pas l'suspect
E       /      B   
Après j'vais changer d'nom comme Cassius Clay
C#m
Un endroit où j'aurai plus besoin d'prendre le mic'
E   /  B
Un endroit où tout l'monde s'en tape de ma life

  C#m              E  /  B          C#m              E  /  B 
1)-4-----------5---4----------2------4-----------5---4----------2---
2)---5-------5-------5------4---4------5-------5-------5------4---4-
3)-----6---6-----------4-----------------6---6-----------4----------
4)------------------------2---------------------------------2-------
5)-4---------------7-----------------4---------------7--------------

Refrain:
     C#m         /         A      
J'me tire, me demande pas pourquoi j'suis parti sans motif
E     /     B 
Parfois je sens mon cœur qui s'endurcit
C#m      /      A
C'est triste à dire mais plus rien n'm'attriste
E     /     B
Laisse-moi partir loin d'ici
C#m     /      A
Pour garder l'sourire, je me disais qu'y'a pire
E       /      B
Si c'est comme ça, bah fuck la vie d'artiste
C#m           /            A    
Je sais qu'ça fait cliché d'dire qu'on est pris pour cible
E      /     B                    C#m / A | E / B | C#m / A | E / B 
Mais j'veux l'dire juste pour la rime

  C#m              E  /  B          C#m              E  /  B 
1)-4-----------5---4----------2------4-----------5---4----------2---
2)---5-------5-------5------4---4------5-------5-------5------4---4-
3)-----6---6-----------4-----------------6---6-----------4----------
4)------------------------2---------------------------------2-------
5)-4---------------7-----------------4---------------7--------------

Couplet:
C#m          /           A 
Si j'reste, les gens me fuiront sûrement comme la peste
E     /    B    
Vos interviews m'ont donné trop d'maux d'tête
C#m          /          A
La vérité c'est que j'm'auto-déteste
E      /     B   
Faut qu'j'préserve tout c'qu'il me reste
C#m       /       A     
Et tous ces gens qui voudraient prendre mon tél'
E   /   B  
Allez leur dire que j'suis pas leur modèle
C#m     /     A    
Merci à ceux qui disent "Meu-gui on t'aime
E   /   B
Malgré ta couleur ébène"

Pont:
C#m
J'me tire dans un endroit où j'serai pas l'suspect
E       /      B   
Après j'vais changer d'nom comme Cassius Clay
C#m
Un endroit où j'aurai plus besoin d'prendre le mic'
E   /  B
Un endroit où tout l'monde s'en tape de ma life

  C#m              E  /  B          C#m              E  /  B 
1)-4-----------5---4----------2------4-----------5---4----------2---
2)---5-------5-------5------4---4------5-------5-------5------4---4-
3)-----6---6-----------4-----------------6---6-----------4----------
4)------------------------2---------------------------------2-------
5)-4---------------7-----------------4---------------7--------------

Refrain:
     C#m         /         A      
J'me tire, me demande pas pourquoi j'suis parti sans motif
E     /     B 
Parfois je sens mon cœur qui s'endurcit
C#m      /      A
C'est triste à dire mais plus rien n'm'attriste
E     /     B
Laisse-moi partir loin d'ici
C#m     /      A
Pour garder l'sourire, je me disais qu'y'a pire
E       /      B
Si c'est comme ça, bah fuck la vie d'artiste
C#m           /            A    
Je sais qu'ça fait cliché d'dire qu'on est pris pour cible
E      /     B                    C#m / A , E / B , C#m / A , E / B 
Mais j'veux l'dire juste pour la rime

  C#m              E  /  B          C#m              E  /  B 
1)-4-----------5---4----------2------4-----------5---4----------2---
2)---5-------5-------5------4---4------5-------5-------5------4---4-
3)-----6---6-----------4-----------------6---6-----------4----------
4)------------------------2---------------------------------2-------
5)-4---------------7-----------------4---------------7--------------

Pont:
       C#m                      E   /
J'suis parti sans mentir, sans me dire
            B       
"Qu'est-ce que j'vais devenir ?"
 C#m                 
Stop ! Ne réfléchis plus, Meu-gui
  E       /      B
Stop ! Ne réfléchis plus, vas-y !
C#m                      E   /
Parti sans mentir, sans me dire
            B
"Qu'est ce que j'vais devenir ?"
 C#m
Stop ! Ne réfléchis plus, Meu-gui
  E       /      B
Stop ! Ne réfléchis plus, vas-y !

Refrain:
     C#m         /         A      
J'me tire, me demande pas pourquoi j'suis parti sans motif
E     /     B 
Parfois je sens mon cœur qui s'endurcit
C#m      /      A
C'est triste à dire mais plus rien n'm'attriste
E     /     B
Laisse-moi partir loin d'ici
C#m     /      A
Pour garder l'sourire, je me disais qu'y'a pire
E       /      B
Si c'est comme ça, bah fuck la vie d'artiste
C#m           /            A    
Je sais qu'ça fait cliché d'dire qu'on est pris pour cible
E      /     B                    C#m / A , E / B , C#m / A , E / B 
Mais j'veux l'dire juste pour la rime

  C#m              E  /  B          C#m              E  /  B 
1)-4-----------5---4----------2------4-----------5---4----------2---
2)---5-------5-------5------4---4------5-------5-------5------4---4-
3)-----6---6-----------4-----------------6---6-----------4----------
4)------------------------2---------------------------------2-------
5)-4---------------7-----------------4---------------7--------------

Бой: V v ^ ^ v v v^
comments powered by Disqus
Наверх