Аккорды «Matthew Good Band»

Matthew Good Band
Мэттью Фредерик Роберт Гуд (Matthew Frederick Robert Good, 29.06.1971) – канадский рок-музыкант. Matthew Good Band – одна из самых успешных альтернативных канадских групп 90-х. Бессменным лидером группы был Matthew Frederick Robert Good, что не трудно угадать из названия команды. Бэнд просуществовал с 1995-го по 2002-й год, после чего Мэтью занялся сольной карьерой и подался в политику. Родился Гуд в Бернаби, Британская Колумбия. Музыкальная карьера его началась с создания ряда демонстрационных… Читать полностью... Мэттью Фредерик Роберт Гуд (Matthew Frederick Robert Good, 29.06.1971) – канадский рок-музыкант. Matthew Good Band – одна из самых успешных альтернативных канадских групп 90-х. Бессменным лидером группы был Matthew Frederick Robert Good, что не трудно угадать из названия команды. Бэнд просуществовал с 1995-го по 2002-й год, после чего Мэтью занялся сольной карьерой и подался в политику. Родился Гуд в Бернаби, Британская Колумбия. Музыкальная карьера его началась с создания ряда демонстрационных записей в стиле фольк и работы в качестве солиста в фольк-группе 'Rodchester Kings'. На одном из концертов в Университете Саймона Фрейзера на Мэттью и его коллегу, гитариста Саймона Вудкока, обратил внимание менеджер Брент Кристенсен. Команда 'Matthew Good Band' была создана в Кокуитламе, Британская Колумбия, в 1993-ем. В конце 1993-го они записали короткую демонстрационную версию песни 'Euphony'. В 1994-ом группа получила приз на конкурсе, устроенном одной из местных радиостанций. В состав приза входила возможность записаться в местной студии; именно здесь в сентябре 1994-го была создана пластинка '15 hours on a September Thursday'; на ней были такие песни группы, как 'Second Sun', 'Dancing Invisible' и 'Push'. В декабре 1994-го с помощью этой записи группа получила контракт с компанией 'EMI Publishing'. В марте 1995-го оригинальный состав группы отправился в концертный тур по Канаде. После тура команда распалась, и Мэттью набрал себе новых помощников. Дебютный CD 1995 года “Last of the Ghetto Astronauts” стал самым продаваемым альбомом в Канаде, выпущенным на независимом лейбле. К концу девяностых группа все еще продолжала довольно активно выступать; к несчастью, из-за внутренних трений гитарист и клавишник Дейв Дженн был вынужден уйти из команды, не дожидаясь окончания записи альбома. Он вернулся через несколько дней, однако сразу после окончания работ над альбомом ушел снова – на сей раз окончательно. После ухода Дженна Гуд распустил группу и начал сольную карьеру. Далее группа издала еще 6 альбомов, последний из которых увидел свет в 2001-м. Самой успешной студийной работой стал альбом "Beautiful Midnight” (1999), который стремительно вознес команду на вершину успеха благодаря таким синглам как "Hello Time Bomb", "Strange Days" и "Load Me Up" и принес Matthew Good Band сразу две награды на Juno awards-2000 (за лучшую группу и за лучший рок-альбом). Музыкой Гуд продолжает заниматься и по сей день; так, в 2008-ом он начал работу над своим четвертым сольным альбомом, 'Vancouver'. Вышел альбом в 2009-ом; в отличие от предыдущих проектов, вышел он не независимым, а под логотипом 'Universal Music Canada'. Окончательный релиз состоялся 6-го октября 2009-го; первые двести экземпляров были подписаны лично Гудом. Уже за месяц до выпуска музыка альбома была выложена в свободный доступ на сайте – музыкант всегда придерживался мнения, что творчество его должно быть максимально доступным для поклонников. Скрыть...
Популярные аккорды Matthew Good Band:
алфавиту | просмотрам | случайно
  • Verse:
       0     0     4     9 
       0     0     4     9 
       8     8     4     9 
       9     9     6    11 
       9     7     6    11 
       7     x     4     9 
     bsus4  E5?   G#m   C#m
    
    Chorus:
       0     2     0     0     4     7…
  • Drop D.
    Intro
    e|--------------------------------------------------------
    B|----------------X4------------------------X4------------
    G|Clean--------------------------Heavy--------------------
    D|-Part-----4----4---4-0---4-0---Part--5-5-5-5-4-4-4-4-4-4…
  • Tune Half-Step down
    
    e|--------------------------------------------
    b|--------------------------------------------
    g|---------0--------------------0-------------                  played 12xs
    d|-------0---------0----------0------------0--
    a|----9--------11---------12--------7---0-----
    e|----7---------9----9----10--------5---------
    
    then…
  • Verse 
    G|---------------------|---------------------|-------------------------| 
    D|---------------------|---------------------|-------------------------| 
    A|---2-2-2-2-2-2-2-2---|---2-2-2-2-2-2-2-2---|-------------------7-----|…
  • Intro/Verse
    G|------------------------------------------------|
    D|------------------------------------------------|
    A|---4-4----2-2-----------------------------------|
    E|-----------------5-5----2-2--2--2---0h2h3---0---|
    
    
    	Chorus
    G|--------------------|----------------|----------------|----------------|
    D|--------------------|----------------|----------------|---7------------|
    A|--------------------|---0--0--0--0---|----------------|---0--0--0--0---|
    E|---0---0-0--0-0-0---|----------------|---2--2--2--2---|----------------|
    	
    	
    
    	Post-Chorus…
  • Intro & Verse-
    E-----------------------------------------
    A------3-3-3-3-3-3--1--1-1--1-1-1-1-------
    D-2-2--2-2-2-2-2-2--0--0-0--0-0-0-0-------
    G-2-2--2-2-2-2-2-2--2--2-2--0-0-0-0-------
    B-0-0--0-0-0-0-0-0--0--3-3--2-2-2-2-------
    E-----------------------------------------
    
    Hey…
  • Tuned down 1/2 step
    
    
    Verse (clean)
    eb--------------------------0-----------------------------
    Bb--------3--------0-----------------0--------------------
    Gb------0--------0--------0--------0----------0--------0--
    Db----4--------4--------2--------2----------2--------2----
    Ab--5--------5--------3--------3----------2--------2------
    Eb--------------------------------------0--------0--------
    
    (continued)
    eb--------------------------------------------------------
    Bb--------------------------------------------------------
    Gb--------0--------0--------------------------------------
    Db------2--------2----------------------------------------
    Ab----2--------2------------------------------------------
    Eb--0--------3--------------------------------------------
    
    
    Riff…
  • X=bar
    x=mute
    o=open
    h=hammer
    |||||||||||||||||||||||||||||||||||||||||||||||||||||||||||||||||||||||||||||||||||||||||||||||||||||||||||||||||||||||||||
    
    A#(6th fret) X X X X X X      Asus(5th fret) X o o o o o…
  • Tune down Approx 3/4 step.  (Tune to the song if you want to be dead on)
    
    
    	Go through Intro Twice without vocals		    Repeat Ending
                                                                ============
    E|-------||------------|-----------------|-----------------||-----------|
    B|-------||*-----------|-----------------|-----------------||-----------|
    G|-------||------------|-----------------|-----------------||-----------|
    D|-----7-||------7-----|-----7-----7-----|-----2-----2-----||-2-----2---|
    A|---5---||*---5-----5-|---4-----4-----0-|---2-----2-----2-||-----2-----|
    E|-0-----||--0-----0---|-0-----0-----0---|-0-----0-----0---||---0-----0-|…
  • CHORDS
    
    B - 799800
    A - 577600
    F#m - 244200
    E - 022100
    D5 - XX0230 or 10 12 12 11 0 0
    
    B			  A
    	Is there anything that I need to say
    F#m			E
    	that hasn't been said before
    
    	I have been polite for too long
    	why should I be…
  • Tuning: Normal
                        
    
      Intro/Verse
    G|------------------------------------|
    D|------------------------------------|
    A|--6-6-6-6-6-6-6-6-6-6-6-6-6-6-6-6---|
    E|------------------------------------|
    
    G|------------------------------------|
    D|------------------------------------|
    A|----------------6-------------------|
    E|--8-8-8-8-8-8-8---4-4-4-4-4-4-4-6---|
    
    G|------------------------------------|
    D|------------------------------------|
    A|--6-6-6-6-6-6-6-6-6-6-6-6-8-8-8-8---|
    E|------------------------------------|
    
    G|------------------------------------|
    D|------------------------------------|
    A|----------------6-------------------|
    E|--8-8-8-8-8-8-8---4-4-4-4-4-4-4-6---|…
  • S1: Verse 1
               C  C  D  D  D                          A  A  F  F  F
    e|-----------------|------------------|-------------------|---------------------|
    B|-----------------|------------------|-------------------|---------------------|
    G|---------5--5-/7-|7--7--------------|-------------------|-------------------o-|
    D|---------5--5-/7-|7--7--------------|-----------7--7-3-|3--3---------------o-|
    A|---------3--3-/5-|5--5--------------|-----------7--7-3-|3--3-----------------|
    E|-----------------|------------------|-----------5--5-1-|1--1-----------------|
    (note:…
  • This is the Beginning 
    
    D -------------------
    A ------------------
    E --3-3---0-0-0--
        Go right into this  (Verse)
    G ------------------------------------------
    D ------------------------------------------   
  • Intro (0:00)
    E--------------------------------------------------------------
    A--------------------------------------------------------------
    D-x-x-x------------------------7--7--7--6--6---6--6-----------
    G-x-x-x--7--7--7-/-8--8--8--8--7--7--7---6--6---6--6-----------
    B-x-x-x--7--7--7---8--8--8--8--5--5--5---4--4---4--4-----------
    E--------5--5--5---6--6--6--6----------------------------------
    
    E-------------------------------------------------------------
    A-------------------------------------------------------------
    D-------------------------7--7--7--6--6---6--6---------------…
  • Guitar 1-Intro: 
    E|----------------|---------------|----------------|-----------------| 
    B|----------------|---------7-----|----------------|-----------------| 
    G|----8-------8---|-----4---------|-----8-----8----|-----4-----------|…
  • Intro, Chorus, Outro:
    
    G|----------------------------------|
    D|-----1----------------------------|
    A|-1h3---3--------------3-3-3-3-----| 
    E|-----------1-1-1--3-3-------------|
    
    
    Verse:
    
    G|----------------------------------|
    D|----------------------------------|
    A|--------3-3--33-------------------|
    E|1-1--11---------------------------|
    
    Brigde(s):…
  • Intro-Verse-Chorus-Bridge-Verse-Chorus-outro
    
    
    There's a bit of a drum intro at the start with the guitar doing an E
    power chord which fades in and after 16 bars (I think) it starts up.
    
    Intro
    -0-
    -0-
    -9-
    -9-
    -7-
    -0-
    P.M.
    
    Repeat…
  • Intro-Verse-Chorus-Bridge-Verse-Chorus-outro
    
    
    There's a bit of a drum intro at the start with the guitar doing an E
    power chord which fades in and after 16 bars (I think) it starts up.
    
    Intro
    -0-
    -0-
    -9-
    -9-
    -7-
    -0-
    P.M.
    
    Repeat…
  • This is a really sweet sounding song. It's all acoustic, with two guitar tracks,
    no drums or bass, and a capo on the second fret of both guitars. Here it is.
    (In 3/3 time)
    
    There is no intro, it goes straight into the first…
  • regular tuning
    
    it's basically different variations of the e chord
    
    intro/verse riff:
    e|------------------------------------------------|
    b|------------------------------------------------|
    g|------1---------1---------1---------1-----------|
    d|----2---2-----2---2-----2---2-----2---2---------|
    a|--2------2--4-------4-1-------1-0-------0-------|
    E|------------------------------------------------|
    
    
    then…
  • intro:
    E|------------------------------------------------------------------------------------------|
    B|------------------------------------------------------------------------------------------|
    G|----X--X-----X--X--X-----X-X-----X--X--X----X---------------------------------------------|
    D|----X--X-----X--X--X-----X-X-----X--X--X----X---------------------------------------------|
    A|----2--2-----2--2--2-----5--5----5--5--5--s-6---------------------------------------------|
    E|----2--2-----2--2--2--s--5--5----5--5--5--s-6---------------------------------------------|
    
    riff…
  • D6
    D6+F#
    
    A
    Good morning
    
            A7+G#
    don't cop out
    
             G                                   D6
    you crawled from the cancer to land on your feet
    
                  A
    are you crazy to want this
    
    E                G…
Наверх