Аккорды «Mazzy Star»

Mazzy Star
Mazzy Star – это психоделическая смесь dream pop, фолка и блюза. Музыка Mazzy Star способна ввести слушателя в транс редкой глубины. Нежный голос, уходящий порой в шепот, и запредельной неясности тексты принадлежат Хоуп Сандовал, а гитара и музыка – Дэвиду Робэку. Хоуп и Дэвид познакомились в конце 80-ых в Лос-Анджелесе, где Робэк был активным участником калифорнийской indie сцены Paisley Underground, возродившей психоделический рок. Вышедший в 1990 году дебютный альбом "She Hangs Brightly"… Читать полностью... Mazzy Star – это психоделическая смесь dream pop, фолка и блюза. Музыка Mazzy Star способна ввести слушателя в транс редкой глубины. Нежный голос, уходящий порой в шепот, и запредельной неясности тексты принадлежат Хоуп Сандовал, а гитара и музыка – Дэвиду Робэку. Хоуп и Дэвид познакомились в конце 80-ых в Лос-Анджелесе, где Робэк был активным участником калифорнийской indie сцены Paisley Underground, возродившей психоделический рок. Вышедший в 1990 году дебютный альбом "She Hangs Brightly" сочетал элементы блюза и фолка с психоделическим звучанием гитары. В 11 треках Mazzy Star определили свою территорию – тягучий dream pop. У группы появились поклонники, но Сандовал и Робэк с самого начала подчеркнуто дистанцировались от любых «звездных» проявлений коммерческого успеха. Они практически не давали интервью, а когда журналистам удавалось все-таки загнать их в угол – отделывались односложными ответами. Следующий альбом группы "So Tonight That I Might See" вышел два года спустя уже на другом лейбле. Во втором альбоме Хоуп и Дэвид продолжали ту же линию, но звук стал более собранным. Через год после выхода "So Tonight That I Might See" первый трек альбома "Fade Into You" попал в американские чарты, и в 1995 году альбом стал платиновым. Успех нисколько не вскружил голову Хоуп и Дэвиду. Она продолжала делить свое время между Лос-Анджелесом и Лондоном, а он обосновался в Беркли, Калифорния. Время от времени они давали малосодержательные интервью и удивляли поклонников редкими живыми выступлениями. В 1996 году вышел "Among My Swan", закрепивший за Mazzy Star репутацию самой меланхоличной группы американской indie-сцены. Альбом получился более лаконичным и акустическим, чем предыдущий. Один из самых сильных треков альбома – "Umbilical", в котором слова почти невозможно разобрать, но музыка уходит в космическую бесконечность. После выхода альбома музыканты отправились в небольшое турне. Последнее выступление группы состоялось в Лондоне в 2000 году. Хотя Mazzy Star никогда официально не заявляли о прекращении совместной деятельности, никаких новых релизов не было в течение 15 лет. В октябре 2011 года группа представила две новые песни — "Common Burn" и "Lay Myself Down". В 2013 году состоялся релиз четвёртого полноформатного альбома "Seasons of Your Day". Основной состав: Хоуп Сандовал - вокал, автор песен Дэвид Робэк - гитара, музыка Джилл Эмери - бас-гитара Кит Митчелл - ударные Суки Эверс - клавишные Уилльям Купер - клавишные, скрипка Скрыть...
Популярные аккорды Mazzy Star:
алфавиту | просмотрам | случайно
  • The Chords Are A, E, Bm and D
    
    The Slide guitar part goes like this
    
     = slide up
    / = slide down
    --7/9-- slide straight to second note
    --7-/9-- let first note ring out before slide
    
    Intro/background
    
       A      E       Bm
    e|--7/9-------------------
    b|--------7/9-----9-7----
    g|------------------------
    D|------------------------
    A|------------------------
    E|------------------------…
  • Legend
    ------
    
     h  = hammer-on
     p  = pull-off
     b  = bend
     r  = bend release
     /  = slide up/down
     = natural harmonic
    [5] = artifical harmonic
     ~  = vibrato
     tr = trill
    
    
    
    chord progression throughout the song…
  • -------------------------------------------------------------|----------------|
    -----3-----3---3-----3-----3---3-----3-----3---3-----3----3--|----------------|
    ---2-----2---------2-----2---------2-----2-------------------|----------------|
    -0-----0-----0---0-----0-----0---0-----0-----0--------------0|----------------|
    -------------------------------------------------0h3---------|----------------|
    -------------------------------------------------------0h3---|----------------|…
  • h = hammer on
    p = pull off
    / = slide up
    \ = slide down
    ~ = vibrato
    ^ = bend (half-, full-, two-steps etc. specified)
    rb=release bend
    
    (FROM LOW E TO HIGH E):
    Cadd2  X32030
    
          G
    |---|---------------|-----------------|
    |---|-0-----0---0---|-0---0---0-0---0-|
    |---|-0-----0-0-0-0-|-0-0-0-0-0-0---0-|
    |-0-|-0-----0-0-0-0-|-0-0-0-0-0-0---0-|
    |-2-|-2-----2-x-1-x-|-2-x-1-x-2-2---2-|
    |-3-|-3-----3-3-3-3-|-3-3-3-3-3-3---3-|
    repeat…
  • FADE INTO YOU (mazzy star)
    (A, E, Bm)
    I wanna hold the hand inside you
    I wanna take the breath that's true
    I look to you and I see nothing
    I look to you to see the truth
    You live your life, you go in shadows
    You'll come…
  • A   D   E
                    A   D
    Ride it on baby
    E            A   D   E
    Into my view
                    A   D
    Ride it on baby
    E              A   D   E
    Into your side
                    A
    Ride it on baby
          D…
  • Intro
    [A]
    
    [Bm]I can't believe your [A] thinking
    [Bm]Save everyone [A] inside you
    
    [F#m]Ta[E]ke [Bm] everything
    [F#m]Fa[E]ke [Bm] everything
    [F#m]Sa[E]ve [Bmsus] everything about [A] me
    
    [Bm]All of you, all [A]…
  • Intro: C,  G D C, G D C
    
    
    G    D       C
    Cry, cry for you
    G              D              C
    Just like you knew I wouldn't do
    G    D       C
    Cry, cry for you
    G            D           C  
    Just like a song in the last…
  • Tuning:EADG
    
    Intro 00:00-00:19 
    
    G|-12/14----12h14p12\9-------------------10------9-9----9---9--9-9-9---------|
    D|----------------------12-10-p-0--12h12----12--------0---0------------------|
    A|------------------------------0--------------------------------------------|
    E|---------------------------------------------------------------------------|
    
    00:26-01:25…
  • No Capo
    
    Intro:
    C# B F#
    C# B F#
    C#
    
    
    B          F#    
      You used to say, 
    C#       B       F#
       Don't give me a thing
    C#        B            F#
      Look at me with your cold eyes
    C#    B             F#
      You…
  • C   G   D  
    
    C   G   D
    
    G                                    D
    You really had a million hearts to break
    G                                             D
    And all this time I never left you in the moonlight
    G…
  • Tunning: Full step down
    
    E  : x 7 6 4 5 0
    Em : x 7 6 5 5 0
    F : 1 3 3 2 1 1
    G : 3 5 5 4 3 3
    E/B : 7 7 9 9 9 7
    Em/B : 7 7 9 9 8 7
    D? : 7 7 9 9 12 7   or  x x x 4 5 7
    
    
    Note: The F and the G chord I play with barre…
  • G throughout (with palm muting)
    |---|---------|--------|---------|---------|
    |---|---------|--------|---------|---------|
    |---|---------|--------|---------|---------|
    |---|---------|--------|---------|---------|
    |-5-|---5---5-|--5---5-|---5---5-|-2-----5-|
    |-3-|-3-3-3-3-|3-3-3-3-|-3-3-3-3-|-------3-|
    
    After…
  • G   C   G   C   G   C   D
    G              C
     Bells ring into the night
    G
     Sounds like a mystery
             C
    Song in a rainy night
    G
     Hold your throat
           C
    And arm together
    G                        C
     And see…
  • INTRO:
    
    G   Em  C  D  x 3
    
    e  --2-3-2---------|
    B  --3-3-3---------|  Riff #1
    D  --2-2-2---------|
    
    e  --2-2-3-2-3-2-3-3----|
    B  --3-3-3-3-3-3-3-3----|  Riff #2
    D  --2-2-2-2-2-2-2-2----|
    
    Play Riff #1 at the…
  • No Capo
    
    Intro: G
    
    G
    I've gotta stop
    
    Making you stay
               Am
    I've gotta know
    
    You'd never say
                G
    Those words are meant
    
    Not to be thrown
    
    God hears you say
    
    You put me on…
  • (FROM LOW E TO HIGH E):
    A     X02220
    A5#4  X0224X
    Asus4 X02230
    A^?    X0222X
    
    A   E   D   A (2x)
    
                   A
    They say it's me
                        E
    That makes you do things
                        D
    You might not have…
  • h = hammer on
    p = pull off
    / = slide up
    \ = slide down
    ~ = vibrato
    ^ = bend (half-, full-, two-steps etc. specified)
    rb=release bend
    
    (sorry if this one^Òs confusing)
    Intro:
    |-----------------|-----------------|-----------------|-----------------|
    |-3---3-3---3-3-3-|-3---3-3---3-3-3-|-3---3-3---3-3-3-|-3---3-3---3-3-3-|
    |-2---2-2---2-2-2-|-2---2-2---2-2-2-|-2---2-2---2-2-2-|-2---2-2---2-2-2-|
    |-0---0-0---0-0-0-|-0---0-0---0-0-0-|-0---0-0---0-0-0-|-0---0-0---0-0-0-|
    |-----------------|-----------------|-----------------|-----------------|
    |-----------------|-----------------|-----------------|-----------------|
    
    |-----------------|-----------------|-----------------|-----------------|
    |-3---3-3---3-3-3-|-3---3-3---3-3-3-|-3---3-3---3-3-3-|-3---3-3---3-3-3-|
    |-2---2-2---2-2-2-|-2---2-2---2-2-2-|-2---2-2---2-2-2-|-2---2-2---2-2-2-|
    |-0---0-0---0-0-0-|-0---0-0---2-2-2-|-2h4-4-4---4-4-2-|-2h4-4-4---4-4-4-|
    |-----------------|-----------------|-----------------|-----------------|
    |-----------------|-----------------|-----------------|-----------------|
    
    |-----------------|-----------------|-----------------|-----------------|
    |-3---3-3---3-3-3-|-3---3-3---3-3-3-|-3---3-3---3-3-3-|-3---3-3---3-3-3-|
    |-2---2-2---2-2-2-|-2---2-2---2-2-2-|-2---2-2---2-2-2-|-2---2-2---2-2-2-|
    |-4---4-4---4-4-4-|-4---4-4---2-2-2-|-2p0-0-0---2-2-2-|-2p0-0-0---0-0-0-|
    |-----------------|-----------------|-----------------|-----------------|
    |-----------------|-----------------|-----------------|-----------------|
    
    |-----------------|-----------------|-----------------|-----------------|
    |-3---3-3---3-3-3-|-3---3-3---3-3-3-|-3---3-3---3-3-3-|-3---3-3---3-3-3-|
    |-2---2-2---2-2-2-|-2---2-2---2-2-2-|-2---2-2---2-2-2-|-2---2-2---2-2-2-|
    |-0---0-0---0-0-0-|-0---0-0---2-2-2-|-2h4-4-4---4-4-2-|-2h4-4-4---4-4-4-|
    |-----------------|-----------------|-----------------|-----------------|
    |-----------------|-----------------|-----------------|-----------------|
    
    |-----------------|-----------------|-----------------|-----------------|
    |-3---3-3---3-3-3-|-3---3-3---3-3-3-|-3---3-3---3-3-3-|-3---3-3---3-3-3-|
    |-2---2-2---2-2-2-|-2---2-2---2-2-2-|-2---2-2---2-2-2-|-2---2-2---2-2-2-|
    |-4---4-4---4-4-4-|-4---4-4---2-2-2-|-2p0-0-0---2-2-2-|-2p0-0-0---0-0-0-|
    |-----------------|-----------------|-----------------|-----------------|
    |-----------------|-----------------|-----------------|-----------------|
    
    |-----------------|-----------------|-----------------|-----------------|
    |-3---3-3---3-3-3-|-3---3-3---3-3-3-|-3---3-3---3-3-3-|-3---3-3---3-3-3-|
    |-2---2-2---2-2-2-|-2---2-2---2-2-2-|-2---2-2---2-2-2-|-2---2-2---2-2-2-|
    |-0---0-0---0-0-0-|-0---0-0---0-0-0-|-0---0-0---0-0-0-|-0---0-0---0-0-0-|
    |-3---3-3---3-3-3-|-2---2-2---2-2-2-|-----------------|-----------------|
    |-----------------|-----------------|-----------------|-----------------|
    
    |-----------------|-----------------|-----------------|
    |-3---3-3---3-3-3-|-3---3-3---3-3-3-|-3---------------|
    |-2---2-2---2-2-2-|-2---2-2---2-2-2-|-2---------------|END…
  • Pluck the chords for the verse thusly
    
          G           A5          C            
    e|-------------|---------|-------------|
    b|-------------|---------|--------1----|
    g|---------0---|-----2---|-----0-----0-|
    D|-------0---0-|---2---2-|---2---2-----|
    A|-----2-------|-0-------|-3-----------|
    E|-0h3---------|---------|-------------|
    
    First…
  • No Capo
    
    Intro: Am
    
    C           G
      Fields of light
    C                G
      They hold me inside
    C          G
      Count my stars
                C                  G    C    G
    They're all like you in the sky
    
    
    C…
  • h = hammer on
    p = pull off
    / = slide up
    \ = slide down
    ~ = vibrato
    ^ = bend (half-, full-, two-steps etc. specified)
    rb=release bend
    
    Intro:
     B             A             E             E
    |-------------|-------------|-------------|-------------|
    |-------------|-------------|-------------|-------------|
    |-------4-----|-------2-----|-------1-----|-------1-----|
    |-----4---4---|-----2---2---|-----2---2---|-----2---2---|
    |---6-------6-|---4-------0-|---2-------2-|---2-------0-|
    |-7-----------|-5-----------|-0-----------|-0-----------|…
  • Intro
    G, C [4x]
    
    G
    Just...
        C
    You...
      G
    I...
         C
    It's not...
        G
    You close...
        C
    And...
    G                     C
    All...
    
    G, C, G, C
    
        G                  C
    And...
      G…
  • Intro: D Am C D
    
    Am              C
    Just like that, she follows me
                            D
    My wings are under her tree
    Am
    She says one thing and that's just enough
    C                         D
    It doesn't matter…
  • Intro : C G F C
    
    
         C              G
    Well I think I see another side
                F                 C
    Maybe just another light that shines
        C               G
    And I look over now through the door
          F…
  • h = hammer on
    p = pull off
    / = slide up
     = slide down
    ~ = vibrato
    ^ = bend (half-, full-, two-steps etc. specified)
    rb=release bend
    
    Verses:
      D                                   G
    |-----------------|-----5---5---5-5-|-5-------5---5-5-|---5-5---5-5-5-5-|
    |-3-------3---3-3-|-3-3-3---3---3-3-|-3-------3---3-3-|---3-3---3-3-3-3-|
    |-2-------2---2-2-|-2-2-2---2---2-2-|-0-------0---0-0-|---0-0---0-0-0-0-|
    |-0-------0---0-0-|-0-0-0---0---0-0-|-0-------0---0-0-|---0-0---0-0-0-0-|
    |-----------------|-----------------|-----------------|-----------------|
    |-----------------|-----------------|-----------------|-----------------|
    
    D…
  • No Capo
    
    
    Intro:  C  G  F  C  x2
    
    
    C                     G     
    Look on down from the bridge
                 F               C 
    There's still fountains down there
                          G  
    Look on down from the bridge…
  • (From LOW E to HIGH E)
    D* X-X-12-11-10-10-|
    D  X-X-0-2-3-2-----|
    A  X-X-7-6-5-5-----|
    E7 X-7-6-7-5-X-----|
    
    (Play around with the A chord by using your pinky finger to fret the
    second string and/or the first string…
  • h = hammer on
    p = pull off
    / = slide up
    \ = slide down
    ~ = vibrato
    ^ = bend (half-, full-, two-steps etc. specified)
    rb=release bend
    
              G
    |-3-3-3-|-3-------3-------3---3-3---3-3-3-|-3-------3-------3---3-3---3-3-3-|
    |-2-2-2-|-3-------3---2---3---3-3---2-2-2-|-3-------3---2---3---3-3---2-2-2-|
    |-0-0-0-|-0---0---0---0---0---0-0---0-0-0-|-0---0---0---0---0---0-0---0-0-0-|
    |-0-0-0-|-0---0---0---0---0---0-0---0-0-0-|-0---0---0---0---0---0-0---0-0-0-|
    |-------|---------------------------------|---------------------------------|
    |-------|---------------------------------|---------------------------------|
    
    |-3-------3-------3---3-3---3-3-3-|-3-------3-------3---3-3---3-3-3-|
    |-3-------3---2---3---3-3---1-1-1-|-0---0---0---0---0---0-0---2-2-2-|
    |-0---0---0---0---0---0-0---0-0-0-|-0---0---0---0---0---0-0---0-0-0-|
    |-0---0---0---0---0---0-0---0-0-0-|-0---0---0---0---0---0-0---0-0-0-|
    |---------------------------------|---------------------------------|
    |---------------------------------|---------------------------------|
    
    Play…
  • D   G   D   G  (3x)
    
    D                           G
    Waitin' for a sign from you
    D                              G
    Waitin' for a signal to change
                 D                          G
    Have you forgotten what your…
  • (FROM LOW E TO HIGH E):
    A    X02220
    D/F# XX4232
    E    022100
    Am7  X02010
    
    A   D/F#   A   D/F#   A
       D/F#
    If it's
          A
    The truth
           Am7       A
    That's all I know
      D/F#       A
    I look for you
         D
    And…
  • (From LOW E to HIGH E)
    D   X-X-12-11-10-10-|
    A   X-X-7-6-5-5-----|
    A*  X-0-2-2-2-0-----|
    A5  X-0-2-2-0-0-----|
    Em  X-X-9-9-8-7-----|
    F#m X-X-4-2-2-2-----|
    G   X-X-5-4-3-3-----|
    
    D   Em   A
    D   Em   A
    
    D…
  • A nice song to use to develop picking/strumming/slide technique.
    
    This little riff is the intro and occurs elsewhere in a similar way. The sliding is done with a slide
    but you can do it with finger and pile on the vibrato.
    The…
  • (CHORDS, LOW E TO HIGH E):
    F#7 X9897X
    E  779997
    B  799877
    
    F#7   E   B   F#7
    
         B       E
    I'm sailin' sailin'
           B
    To a place I've never seen
            E
    That's way down south
                     B
    Sweet…
  • (FROM LOW E TO HIGH E):
    E    022100
    A    X02220
    B7   X21202
    
    E
    
    I fell asleep in the silence
    
    Before the street fights the fire
    A
    Free in the world that you've given
    
    Lay in the sound
             E
    The water…
  • h = hammer on
    p = pull off
    / = slide up
    \ = slide down
    ~ = vibrato
    ^ = bend (half-, full-, two-steps etc. specified)
    rb=release bend
    
    RHYTHM FIGURE 1
      F#  E F#          A   F#
    |-----------------|-----------------|
    |-----------------|-----------------|
    |-----------------|-2---------------|A
    |-4-4-2-4-------4-|-----2-4---------|
    |-----------------|-----------------|
    |-----------------|-----------------|
    |…
  • Tuning: Standard
    
    This is a chord tab for the organ progression that pretty much makes up the whole song.
    
    
    Play as needed for the intro:
    
    
            F               C               Dm              C
    e|------1---------------0---------------1---------------0---------------|
    B|------1---------------1---------------3---------------1---------------|
    G|------2---------------0---------------2---------------0---------------|
    D|------3---------------2---------------0---------------2---------------|
    A|------3---------------3-------------------------------3---------------|
    E|------1---------------------------------------------------------------|…
  • h = hammer on
    p = pull off
    / = slide up
    \ = slide down
    ~ = vibrato
    ^ = bend (half-, full-, two-steps etc. specified)
    rb=release bend
    
    Intro:
     G                 C                 G                 C
    |-----------------|-----------------|-----------------|-----------------|
    |-----------------|-----------------|-----------------|-----------------|
    |---------------0-|-------------0---|---------------0-|-------------0---|
    |-------0-----0---|-----2-----2---0-|-------0-----0---|-----2-----2---0-|
    |-----2-----2-----|-3-----3---------|-----2-----2-----|-3-----3---------|
    |-3---------------|-----------------|-3---------------|-----------------|…
  • No Capo
    
    
    Intro: G
    
    
    G             F    C
    I've been let down
           G             F      C   G
    And I'm still coming round
                  F     C
    I've been put down
           G             F         C    G
    And I'm…
Наверх