Аккорды Megadeth - Call Of Ktulu

Добавлено: @romashka
Дата добавления: 07 Августа 2014г.
Рейтинг:
0.0
Просмотров: 401
Транспонировать - +
Intro....play each part twice....

---5---------5---|---6---------6---|---8----------8---|---5---------5---
-------6-------6-|-------6-------6-|-------8--------8-|-------6-------6-
-----7-----7-----|-----7-----7-----|-----9------9-----|-----7-----7-----
-0-------7-------|-0-------7-------|-0-------10-------|-0-------7-------
-----------------|-----------------|------------------|-----------------
-----------------|-----------------|------------------|-----------------



The next part....play it a few times....

---------0------|---------0-------
-------0---0----|-------0---0-----
-----5------5---|-----5-------5---
---7------------|---7-----------7-
-0------------7-|-6---------------
----------------|-----------------



The next part....Dave Mustaine used this again in the intro to Hangar 18

-------1-|-------1-|-------1-|-------5-
-----3---|-----3---|-----3---|-----3---
---2-----|---3-----|---4-----|---5-----
-0-------|-0-------|-0-------|-0-------
---------|---------|---------|---------
---------|---------|---------|---------
Наверх