Аккорды Megadeth - Victory

Добавлено: @romashka
Дата добавления: 07 Августа 2014г.
Рейтинг:
0.0
Просмотров: 442
Транспонировать - +
Verse
-----------------------
-----------------------
-----------------------
0-0-0-0-0-0-0-0-0-0-0-0

-------------------------------------
-------------------------4-5----4-5--
-----------------------3------3------
-0-0-0-0-0-0-0-0-0-0-0--------------0

Pre-Chorus
--------------------
--------------------
--------------------
2-2-2-2-2-2-2-2-2-2-2-2

--------------------
--------------------
--------------------
2-2-2-2-2-2-2-2-2-2-2-2

--------------------
--------------------
--------------------
2-2-2-2-2-2-2-2-2-2-2-2

--------------------
--------------------
--------------------
2-2-2-2-2-2-2-2-2-2-2-2

--------------------
--------------------
--------------------
2-2-2-2-2-2-2-2-2-2-2-2

--------------------
--------------------
--------------------
2-2-2-2-2-2-2-2-2-2-2-2

---------------------
---------------------
---------------------
3-3-3-3-3-3-3-3------


Chorus
-----------------------
-----------------------
----------------8-7----
0-0-0-0-0-0-0-0-----7-6

------------------------
------------------------
----------------8-7--5-7
0-0-0-0-0-0-0-0---------

Interlude
------------------------
--2-4---2-4---2-4---4-2-
5-----3-----5-----2-----
------------------------


Наверх