Аккорды «Melvins»

Melvins
Melvins - американская группа, уже 30 лет играющая разнообразную музыку в разных жанрах и стилях металла, рока, и не только. За 30 лет они выпустили огромную кучу альбомов, EP, и синглов, на которых можно услышать: sludge metal, grunge, stoner metal, noise rock, hardcore punk, drone metal, alternative metal, noise, и другое, включая вещи, которые толком не вписываются в определения жанров. Благодаря своему своеобразному, экспериментальному, смелому и свободному подходу к делу, за плечами команды… Читать полностью... Melvins - американская группа, уже 30 лет играющая разнообразную музыку в разных жанрах и стилях металла, рока, и не только. За 30 лет они выпустили огромную кучу альбомов, EP, и синглов, на которых можно услышать: sludge metal, grunge, stoner metal, noise rock, hardcore punk, drone metal, alternative metal, noise, и другое, включая вещи, которые толком не вписываются в определения жанров. Благодаря своему своеобразному, экспериментальному, смелому и свободному подходу к делу, за плечами команды оказалось множество различных жанров, некоторым из которых положили начало они сами. Например, Melvins были одними из первых, кто существенно замедлил и утяжелил панк, превратив его в то, что теперь называется sludge metal. Ключевое слово - "существенно". Их идейные вдохновители на тот момент - панки Flipper и Black Flag - уже успели сбавить темп, но Melvins взялись за дело гораздо основательнее и радикальнее - дебютный альбом "Gluey Porch Treatments" звучал тяжелее и медленнее, чем асфальтовый каток. А альбом 1992 года "Lysol" выложил фундамент для drone metal: что-либо тяжелее и медленнее песни "Hung Bunny" придумать было уже практически невозможно. Это очень понравилось группе Earth, которые начали заниматься подобными вещами, и, в свою очередь, вдохновили таких известных исполнителей дроуна, как Sunn O))). Также Melvins, по сути, в ответе за развитие Сиэттлской grunge-сцены. В том числе потому, что музыка Melvins и общение с барабанщиком Дэйлом Кровером и вокалистом Баззом Осборном вдохновило пресловутого Курта Кобейна встать на музыкальную стезю, создав с Дэйлом группу Fecal Matter, а в последствии - сформировав группу Nirvana. И это были лишь первые годы. За свою всё ещё активно продолжающуюся карьеру Melvins сделали много впечатляющих и необычных вещей и вдохновили множество исполнителей. А началась их карьера в 1983 в городишке Монтесано, штат Вашингтон, когда группа собралась в составе трёх школьных друзей: Роджер "Базз" / "Кинг Баззо" Осборн (гитара, вокал), Мэтт Лукин (бас), и Майк Диллард (ударные). Но Майк ушёл уже через год, и на смену ему пришёл Дэйл Кровер. С тех пор Базз и Дэйл стали постоянными и неизменными участниками группы и остаются ими и по сей день. А вот басистов за прошедшие годы Melvins сменили уже много. В 1987 Базз и Дейл переехали в Сан-Франциско, оставив Мэтта Лукина в Монтесано. Базз Стал жить у дочери актрисы Ширли Темпл - Лори Блэк, которая стала их новой басисткой. Но в 1991 они расстались с ней, и бас-гитару взял в руки Джо Престон (который сильно увлёкся дроуном и в дальнейшем играл с Earth и Sunn O)))). Но больше года в Melvins он не продержался, так как Базз уволил его за то, что тот был слишком ленивым. Тогда на помощь призвали Марка Дютрома, продюсировавшего первые два альбома группы. До 1998 Марк прилежно исполнял должность басиста, но под конец, по словам Базза, захотел сделать звучание Melvins несколько более прямолинейным, поэтому Базз начал подыскивать нового кандидата для бас-гитары. Спродюсировав последний альбом группы Cows, Баззо подружился с их басистом Кевином Рутманисом и убедил его перейти в свою группу, так как Cows всё равно уже явно распадались. По слухам, к 2005 году Рутманис начал вести себя странно, напиваясь и употребляя наркотики, поэтому и его Мелвинам пришлось выкинуть из группы. После этого Базз обратил внимание на дуэт Big Business, состоящий из Джареда Воррена и Коди Виллиса. В Melvins были приглашены и попали оба - таким образом в группе появился новый басист, а барабанщиков стало целых два. В таком составе группа играет и по сей день. Но Big Business не распались, и в 2012 поехали в своё турне. Чтобы не сидеть без дела, Базз и Дэйл придумали ещё один состав - Melvins Lite. Они взяли Тревора Данна из Mr. Bungle, с которым Базз играл в Fantômas, чтобы тот играл на контрабасе. Они записали с ним альбом Freak Puke и совершили самое быстрое турне по США - 51 штат (50 штатов + Округ Колумбия) за 51 день. Melvins планируют продолжать обе версии группы. Melvins до сих пор остаются по большей части андерграундом. Это далеко не самая лёгкая в освоении творчества группа, и понять её сможет не каждый. По причине их свободолюбивости, музыка Melvins издавалась в основном на малых и независимых лейблах. Пожалуй, пик "мэйнстримной" известности пришёлся на годы 1993-1996, когда благодаря успеху "Nevermind" Nirvana Курт Кобейн помог им подписаться на Atlantic Records, который обеспечил им большие продажи. После трёх альбомов Atlantic поняли, что Melvins им "не по зубам", и сбросили их. Тогда Майк Пэттон подобрал их на свой лейбл Ipecac Records. На данный момент Melvins издаются на нём, а также на лейбле Amphetamine Reptile Records, на котором они уже успели в прошлом выпустить несколько записей. Скрыть...
Популярные аккорды Melvins:
алфавиту | просмотрам | случайно
  • Tune Down Ѕ Step - Eb, Ab, Db, Gb, Bb, Eb
                  Or - D#, G#, C#, F#, A#, D#
    
    Intro
                          1,4|              2,5|                          3,6|
    |----------|-------------|-----------------|-----------------------------|
    |----------|-------------|-----------------|-----------------------------|
    |----------|-------------|-----8---9--8----|--------------------7--6--5/-|
    |-7--9-x-9-|-9-9-12--7-6-|-x-9-8-x-9--8-10-|-9-9-9-9-10-6/7-7-x-7--6--5/-|
    |-7--9-x-9-|-9-9-12--7-6-|-x-9-6-x-7--6-10-|-9-9-9-9-10-6/7-7-x-5--4--3/-|
    |-5--7-x-7-|-7-7-10--5-4-|-x-7---x------8--|-7-7-7-7-8--4/5-5-x----------|
    
    Verse…
  • Tuning: CGCFAD
    
    You play this first riff 8x the first time and 4x the second.
    
    D|------------------------------------------------------------------|
    A|------------------------------------------------------------------|
    F|------------------------------------------------------------------|
    C|-0-0-0-0-0-0-0-0-0-0-0-1---1---1-0-0-0-0-0-0-0-0-0-0-0-6---6---6--|
    G|-0-0-0-0-0-0-0-0-0-0-0-1---1---1-0-0-0-0-0-0-0-0-0-0-0-6---6---6--|
    C|-0-0-0-0-0-0-0-0-0-0-0-1---1---1-0-0-0-0-0-0-0-0-0-0-0-6---6---6--|
    
    This…
  • e|----------------------------------------|
    b|----------------------------------------|
    g|----------------------------------------|
    d|----------------------2-----------2--2--|    play this.. something times
    a|-10~--7~------7-6-5~--2------5-7--2--2--|
    e|-8~---5~------5-4-3~--0--5-7------0--0--|
    
    e|-------------5-3-------3----------------|
    b|-----------------5-3-5---5-3-5----------|
    g|----------------------------------------|…
  • Drop-D Tuning
    
      Intro Riff (they play this live): 
    
       1   2   3   4     1   2   3   4     1   2   3   4     1   2   3   4
    E|-----------------|-----------------|-----------------|-----------------|
    B|-----------------|-----------------|-----------------|-----------------|
    G|-----------------|-----------------|-----------------|-----------------|
    D|---------3-------|---3-2-----------|-7---------------|-----------------|
    A|-----2-3-------2-|-3-------3-2-----|-7---------------|-------------8/2-|
    D|-2---------------|---------------5-|-7---------------|-------------8/2-|…
  • "Echohead"
    
    Tuning:  Drop D
    
    Order:    Part 1
             Part 2
             Part 3 (2 Times)
             Part 1
             Part 4
    
    Part 1
    e|------------------------|
    B|------------------------|
    G|------------------------|
    D|------------------------|
    A|-X-X-0-0-0-1-0-1-0--3~~~|
    E|-X-X-0-0-0-1-0-1-0--3~~~|
    
    Part…
  • Drop D Tuning
    
    Intro:
    E---------------------------------------------------------------------------|
    B---------------------------------------------------------------------------|
    G---------------------------------------------------------------------------|
    D---------------------------------------------------------------------------|
    A--7-7-7-8-8-8-8-7-7-7-8-8-8-8-8-7-7-7-8-8-8-8-8-7-7-7-8-8-8-8-8------------|
    E--7-7-7-7-7-7-7-7-7-7-7-7-7-7-7-7-7-7-7-7-7-7-7-7-7-7-7-7-7-7-7------------|
    
    Verse:
    E---------------------------------------------------------------------------|
    B---------------------------------------------------------------------------|
    G---------------------------------------------------------------------------|
    D---------------------------------------------------------------------------|
    A--4-5--5-6-5-4--4-4-5--5-6-5-4--4--7--7--7-7-7-7--7--7-7-7-----------------|
    E--4-5--5-6-5-4--4-4-5--5-6-5-4--4--7--7--7-7-7-7--7--7-7-7-----------------|
    
    Chorus:
    E--------------------------------------------------------------------------|
    B--------------------------------------------------------------------------|
    G--------------------------------------------------------------------------|
    D--------------------------------------------------------------------------|
    A--10--10--10-10-10-10---10--10-11-11-11--6--6--6-6-6-6--6--11-11-11-------|
    E--10--10--10-10-10-10---10--10-11-11-11--6--6--6-6-6-6--6--11-11-11-------|
    
    E------------------------------------------------------|
    B------------------------------------------------------|
    G------------------------------------------------------|
    D------------------------------------------------------|
    A--10--10--10-10-10-10--10-11-11-11--6--6--6-6-6-6--6--|
    E--10--10--10-10-10-10--10-11-11-11--6--6--6-6-6-6--6--|…
  • Standard tuning
     
    Intro
    D I--------------------------I
    A I-5~---5-6~----7~--3-3-3-2-I Repeat a couple times
    E I-3~-----------5~--1-1-1-0-I
     
    middle part (not exact rhythm but you get the idea)
    D I--------------------------------------I
    A…
  • Tuning - Low to high - D, A, D, G, B, E
    
    
    Intro - 
    
    |-------------------------------|
    |-------------------------------|
    |-------------------------------|
    |-------------------------------|
    |-------------------------------|
    |-1-1-1-1-1-1-1-1-1-1-1-1-1-1-1-|…
  • The Intro/Chorus
    G ---------|-------------|---------|-------------|
    D ---------|-------------|---------|-------------|
    A ---------|-------------|---------|-------------|
    E 3-32-343-|2-22-0-2-3-20|3-32-343-|2-22-0-2-3-20|…
  • |(G)-------------------------|-------------------------|
    "All the hand and other land,"
     
    |-----------------(C)--------|--------------(G)--------|  
    "And all I've done to get along."
    
    |----------------------------|-------------------------|
    "All…
  • e------------------------------------------------------------------|
    b------------------------------------------------------------------|
    g----------------------------------------------------------4h5p4---|
    d-2---2---0h2-2-2-2---2-2-3---2----3---2---0h2-2-2-3---2---------5-|
    a------------------------------------------------------------------|
    e------------------------------------------------------------------|
    
    e------------------------------------------------------------------|
    b------------------------------------------------------------------|
    g------------------------------------------------------------------|
    d-2---2---0h2-2-2-2---2-2-3---2----3---2---0h2-2-2-3-3-3-3-3-3-3-3-|
    a------------------------------------------------------------------|
    e------------------------------------------------------------------|
    
    alternate…
  • Intro
    e|--------------|
    B|--------------|
    G|--------------|
    D|-2------------|
    A|-2-feedback---|
    E|-0------------|
    
    
    
    Chorus
    e|---------------------------|
    B|---------------------------|
    G|--9-------9----------------|
    D|--9---8---9---8--7--5--2---|
    A|--7---8---7---8--7--5--2---|
    E|------6-------6--5--3--0---|
    
    
    
    Chorus2
    e|--------------------------------|
    B|--------------------------------|
    G|--9/10\9-------9----------------|
    D|--9/10\9---8---9---8--7--5--2---|
    A|--7/8-\7---8---7---8--7--5--2---|
    E|-----------6-------6--5--3--0---|
    
    
    
    Verse
    e|----------------------------------------|
    B|----------------------------------------|
    G|----------------------------------------|
    D|-------------5--------------------------|
    A|----7-7-5-7-----7-7-5-7-8-----------5h7-|
    E|--------------------------7-8-7-5h7-----|…
  • Normal Tuning. 
    
    Riff 1 (5x) 
      
        1   2   3   4   1   2   3   4     1   2   3   4   1   2   3   4   
     E|---------------------------------|---------------------------------| 
     B|---------------------------------|---------------------------------|…
  • 1   +   2   +   3   +   4   +     1   +   2   +   3   +   4   +   
    e ---------------------------------|---------------------------------|
    b ---------------------------------|---------------------------------|
    g ---------------------------------|---------------------------------|
    d…
  • standard tuning
    
    intro
    e|-----------------------------------------------------------------------|
    b|-----------------------------------------------------------------------|
    g|-----------------------------------------------------------------------|
    d|-----------------------------------------------------------------------|
    A|---7-7---0-7-7---0-7-7---0-7-7---0-7-7---0-7-7---0-7-7---0-7-7---0-7---|
    E|-----------------------------------------------------------------------|
    
    
    verse…
  • Tuning: Drop D (D A D G B E)
    
    ~=Let ring
    ^=bend
    
    
    Right after the drum intro just hit this chord
    E|---------------------------------------------------------------------------||
    B|---------------------------------------------------------------------------||
    G|---------------------------------------------------------------------------||
    D|-0~------------------------------------------------------------------------||
    A|-0~------------------------------------------------------------------------||
    D|-0~------------------------------------------------------------------------||
    
    Main…
  • Riff 1 
    
    e-----------------------------|
    b---6-----6--------6----------|
    g-5---5/4---4--4/5---5/4~~----|
    d-----------------------------| Do it twice.
    a-----------------------------|
    e-----------------------------|
    
    
    Riff…
  • Normal tuning
    
    / = bend
    \ = let bend down
    
    Intro
    ---------------------------------------------------------------------
    ---------------------------------------------------------------------
    ---------------------------------------------------------------------
    7--7-7--4--4-4--5-5-5-2---7--7-7--4--4-4--5-4-3-2--------------------
    5--5-5--2--2-2--3-3-3-0---5--5-5--2--2-2--3-2-1-0--------------------
    ---------------------------------------------------------------------
    
    
    ---------------------------------------------------------------------
    ---------------------------------------------------------------------
    ---------------------------------------------------------------------
    ------------------------------------------------2--------------------
    5--5-5--2--2-2--3-3-3-0---5--5-5--2--2-2--3-2-1-0--------------------
    ---------------------------------------------------------------------
    
    
    Verse
    ---------------------------------------------------------------------
    ---------------------------------------------------------------------
    ---------------------------------------------------------------------
    --2-2-2-2-2-2-2-2--5--5----------------------------------------------
    --0-0-0-0-0-0-0-0--3--3--5--5-6-6------------------------------------
    -------------------------3--3-4-4------------------------------------
    
    I'm…
  • 1   2   3   4
    E-|-----------------|-----------------|-----------------|
    B-|-----------------|-----------------|-----------------|
    G-|-----------------|-----------------|-----------------|
    D-|-----------0-2-3-|-2---2-3-2-0-----|-------------0-2-|
    A-|-0---0-2-3-------|-------------3-2-|-------0-2-3-----|
    D-|-----------------|-----------------|-5---5-----------|
    
    
    E-|-----------------|-----------------|-----------------|
    B-|-----------------|-----------------|-----------------|
    G-|-----------------|-----------------|-----------------|
    D-|-0---0-2-0-------|---------------0-|-------0---------|
    A-|-----------3-2---|---------0-2-3---|-3---3---3-2-0---|
    D-|---------------5-|-3---3-5---------|---------------5-|
    
    
    E-|-----------------|-----------------|
    B-|-----------------|-----------------|
    G-|-----------------|-----------------|
    D-|---------2-------|---------3-2-----|
    A-|-----1-2-----1-2-|-----1-2-----3-2-|
    D-|-2---------------|-2---------------|…
  • Riff 1 (play 2X)
    
      1       2       3       4         1       2       3       4
    b---------------------------------|---------------------------------|
    g---------------------------------|---------------------------------|
    d-4-----------3-------------------|-4-------4---3-------------------|
    a-2-----------1-------4---3---2---|-2---2---2---1-------------------|
    e---------------------2---1---0---|-----0---------------------------|
    
    b---------------------------------|---------------------------------|
    g---------------------------------|---------------------------------|
    d-4-----------3-------------------|-4-----------3-------------------|
    a-2-----------1-------4---3---2---|-2-----------1-------------------|
    e---------------------2---1---0---|---------------------------------|
    
    Verse…
  • Riff 1:
    
        1   2   3   4     1  2   3   4
    E-|-----------------|----------------|--------|
    B-|-----------------|----------------|--------|
    G-|-----------------|----------------|--------|
    D-|-----------------|----------------|--------|
    A-|---------3---3-2-|------2---------|--------|
    E-|-2---x-2---2-----|----x---5-5-3-5-|--2x----|
    
    1…
  • intro/riff 1
       1   +   2   +   3   +   4   +     1   +   2   +   3   +   4   +   
    e ---------------------------------|---------------------------------|
    b ---------------------------------|---------------------------------|
    g…
  • Verse:Palm muted except for every other time you switch chords you the play the two chords open
    e|---------------------------------------------------------------------------|
    B|---------------------------------------------------------------------------|
    G|---------------------------------------------------------------------------|
    D|---------------------------------------------------------------------------|
    A|--55566666-55566666-55566666-55566666--------------------------------------|
    D|--55566666-55566666-55566666-55566666--------------------------------------|
    
    Chorus:
    e|---------------------------------------------------------------------------|
    B|---------------------------------------------------------------------------|
    G|---------------------------------------------------------------------------|
    D|---------------------------------------------------------------------------|
    A|--5-300000000-3335553300000000--6665-300000000-3335553300000000------------|
    D|--5-300000000-3335553300000000--6665-300000000-3335553300000000------------|
    
    you…
  • Tuning:  Normal
    
    e|-----------------------------------------------------|
    b|-----------------------------------------------------|
    G|-------------------------------------------------b8~~|
    D|-----------------------------------------------9-----|
    A|-7-7-7-7-7-7-7-7-7-7-7-7-7-7-7-7-7-7-7-7-7-7-7-------|
    E|-0-0-0-0-0-0-0-0-0-0-0-0-0-0-0-0-0-0-0-0-0-0-0-------|
    
    e|----------------------------------------------------------------|
    b|----------------------------------------------------------------|
    G|----------------------------------------------------------------|
    D|------------------------------------------------8-7-2~~~~3-3--3-|
    A|-7-7-7-7-7-7-7-7-7-7-7-7-7-7-7-7-7-7-7-7-7-7-7--8-7-2~~~~3-3--3-|
    E|-0-0-0-0-0-0-0-0-0-0-0-0-0-0-0-0-0-0-0-0-0-0-0--6-5-0~~~~1-1--1-|
    
    e|--------------------------------|
    b|--------------------------------|
    G|--------------------------------|
    D|-2--2-2-2-2-2-2-2-2-2-2-2-----2-|
    A|-2--2-2-2-2-2-2-2-2-2-2-2-0h2---|
    E|-0--0-0-0-0-0-0-0-0-0-0-0-------|…
  • Standard Tuning
    
    
    Riff 1 (Timing varies, listen to the song) x6
    --------------------------------------------------------------|
    -------------------------------------------------------------o|
    --------------------------------------------------------------|
    ----9------------7--6--7--6--7--6--------5--4----------------o|
    ----7-----------------------------7----7-------5--7--5--7-----|
    --------------------------------------------------------------|
    
    
    Riff…
  • Riff 1 - play 2x
    e|--------------------------------|
    b|--------------------------------|
    g|--------------------------------|
    d|-----------------2------2-------|
    a|-2-0-------------2------2-------|
    e|-----2-0-2-0-3^--0------0---0-0-|
    
    e|--------------------------------|
    b|--------------------------------|
    g|--------------------------------|
    d|-----------------2------2-------|
    a|-------2---------2------2-------|
    e|-3-3-5---5-3-5-5-0------0---0-0-|
    
    Riff…
  • Remarks: there is drop D tuning, the bass is arranged for guitar
    
             x= muted
    
    d--x-x-x-x-x---x------|x-x-x-x-x---x-----|
    a--x-x-x-x-x-9-x-15---|x-x-x-x-x-9-x-15--|
    d--x-x-x-x-x-9-x-15---|x-x-x-x-x-9-x-15--|…
  • Standard Tuning - E, A, D, G, B, E
    
    Intro
    
    |--------------------|-----------------------------|-----|----------|
    |--------------------|-----------------------------|-----|----------|
    |--------------------|-----------------------------|-----|----------|
    |--------------------|-----------------------------|-2~~-|-5--------|
    |-------3-3-5^-3-----|-5-----3---3-------3---3---3-|-2~~-|-5--------|
    |-3-5~~----------5~~-|-3-5-5---5---5-5-5---5---5---|-0~~-|-3--|…
  • Get some feedback on or around this note for three minutes:
    e|---------------------------------------------------------|
    b|---------------------------------------------------------|
    g|---------------------------------------------------------|
    d|---------------------------------------------------------|
    a|---------------------------------------------------------|
    e|-14------------------------------------------------------|
    
    e|---------------------------------------------------------|
    b|---------------------------------------------------------|
    g|---------------------------------------------------------|
    d|-/16--15--16--17--16--14--15----------16----------/14~~~-|
    a|-/16--15--16--17--16--14--15\---------16----------/14~~~-|
    e|-/14--13--14--15--14--12--13\---0/----14~~~etc----/12~~~-|etc
    
    Get…
  • Am                  E                    G                    D
    E-|------------------------|--------------------|-----------------------------|
    B-|------------------------|--------------------|-----------------------------|
    G-|------------------------|--------------------|-----------------------------|
    D-|----------------2--3----|---3--2-------------|---------------2-------------|
    A-|-------2--3--5----------|---------5--3--2----|------2--3--5-----5----------|
    E-|---5------------------0-|------------------3-|---5-------------------------|…
  • 1st Part        Play 4x
    
    |-5-5-5-5-5---------------------------------------------------|
    |-3-3-3-3-3--2--2-2-2-2--3-3-3-3-3----7--7-7-- 5-5-----------------|
    |---------- 0--0-0-0-0--1-1-1-1-1-/--5--5-5-0-3-3-0---------------|…
  • Drop D Tuning - D, A, D, G, B, E
    
    Intro
                1,3|             2|     4|
    |------|-------|--------------|------|------------------------------------|
    |------|-------|--------------|------|------------------------------------|
    |------|-------|--------------|------|------------------------------------|
    |------|-------|--------------|------|---------10-------------------------|
    |-11-0-|-6-7~~-|-12-0-5-7-6~~-|-12~~-|-0-0-0------11~~-0-0-0-0-0-6-12-0-0-|
    |-11-0-|-6-7~~-|-12-0-5-7-6~~-|-12~~-|-0-0-0-0---------0-0-0-0-0-6-12-0-0-|…
  • E|----------------------------|----------------------------|----------------------------|
    B|----------------------------|----------------------------|-11---11---11---------------|
    G|-3----3----3----------------|-3----3----3----------------|-10---10---10---9---9---9---|
    D|-3----3----3----2---2---2---|-3----3----3----2---2---2---|-8----8----8----9---9---9---|
    A|-1----1----1----2---2---2---|-1----1----1----2---2---2---|----------------7---7---7---|
    E|----------------0---0---0---|----------------0---0---0---|----------------------------|
    
    
    E|---------------------------------------||----------------------------------------|
    B|---------------------------------------||o---------------------------------------|
    G|---------------------------------------||----------------------------------------|
    D|---------------------------------------||----------------------------------------|
    A|---------------------5--5--7---5-------||o---------------------5--5--7---5-------|
    E|-0--0--3---5--5--7-----------------7---||--0--0--3---5--5--7-----------------7---|…
  • intro
    g -----------------|
    d -5-5-5-5-5-5-5-5-|
    a -5-5-5-5-5-5-5-5-| etc
    e -----------------|
    
    riff
    g ----------------------------------------------------------------|
    d --------------------------------5-5-5-5-5-5-5-5-7-7-7-7-7-7-7-7-|
    a…
  • part 1, main riff:
    E|---------------------------------
    B|---------------------------------
    G|---------------------------------
    A|---------------------------------
    E|-0-0-0-0-0-7-0-6~----------------
    
    E|-----------------------------------------------------------|
    B|-----------------------------------------------------------|
    G|-----------------------------------------------------------|
    A------------------------------------------------------------|
    E|-0-2-0-5-0-0-0-0-0-2-0-3-0-0-0-0-0-2-3-2-3-1-2-1-2-1-2-1-2-|
    
    
    part…
  • Standard Tuning
    Riff 1/Intro
             . .      .    . ~~~
    E |---------------------------------|
    B |---------------------------------|
    G |.-------------------------------.|
    D |.-2-----------------------------.|
    A |--2--------4-4-2-4----2-----2-4--|
    E…
  • standard tuning
    
    Intro - play 8x:
       1   +   2   +   3   +   4   +   1   +   2   +   3   +
    E|--------------------[12]------------------------[12]-----|
    B|----------------[12]--------------------[12]-------------|
    G|--------[12]------------------------[12]-----------------|
    D|-[12]-----------------------[12]-------------------------|
    A|---------------------------------------------------------|
    E|---------------------------------------------------------|
    
    
    Intro…
  • Eb|--------------------------------------|
    Bb|--------------------------------------|
    Gb|-------------6-5----------------------|   (x3)
    Db|-66666666666-6-5--55555555555-5555555-|
    Ab|-66666666666-4-3--55555555555-5555555-|
    Eb|-44444444444------33333333333-3030303-|
    
    
    Eb|---------------------------------------|
    Bb|---------------------------------------|
    Gb|-5-6-5-4-5-6-5-4-----------------------|
    Db|-5-6-5-4-5-6-5-4--77777----------------|…
  • intro
    guitar 1
    E-------------------------------
    B-------------------------------
    G-14-12----12-------------------
    D-------14----14-13-12-10-10----
    A----------------------------12-
    E-------------------------------
    guitar…
  • Drop-D Tuning
    
    	     "amazon"
    
     Verse:
    |--------------------------------------------------------------|
    |--------------------------------------------------------------|
    |--------------------------------------------------------------|
    |--------------------------------------------------------------|
    |-0-0-0-0-0-0-0-0-0-0-0-3--4--3--0-0-0-0-0-0-6--6--x--6--6-3-0-|
    |-0-0-0-0-0-0-0-0-0-0-0-3--4--3--0-0-0-0-0-0-6--6--x--6--6-3-0-|…
  • Tuning - low to high - D, A, D, G, B, E
    
    Intro - 
    
    |---|
    |---|
    |---|
    |-0-| This is some very quiet feedback
    |-0-|
    |-0-|
    
    |---------------------------------------------------------------|
    |---------------------------------------------------------------|
    |---------------------------------------------------------------|
    |-3^~~-0~~-0-0-3^~~-0-3^~~-0~~-6~~-5~~-0-0-3^~~-0-0-6~~---------|…
  • Drop D Tuning - D, A, D, G, B, E 
    
    Intro 
    
    |------|------------------------------------------------------------------| 
    |------|------------------------------------------------------------------| 
    |------|------------------------------------------------------------------|…
  • Part 1
    
    e|----------------------------------------------|
    b|----------------------------------------------|
    g|----------------------------------------------|
    d|----------------------------------------------|
    a|-5-5-5-5--6-6-6-6--5-5-5-5--6-6--6--5-5-------|
    e|-3-3-3-3--4-4-4-4--3-3-3-3--4-4--4--3-3-------|
    
    Part…
  • intro
       1     2     3     4     1     2     3     4
    e|-------------------------------------------------|
    b|-------------------------------------------------|
    g|-------------------------------------------------|
    d|-------------------------------------------------|
    a|-5-----------0-----5-----------------5-----5--5--|
    d|-5-----------0-----5-----------------5-----5--5--|…
  • Tune down one half step
    Low to High Eb Ab Db Gb Bb Eb
    
    ~ = just kind of bend the string and let it down lots of times
    
    --------------------------------------------
    --------------------------------------------
    --------------------------------------------
    --------------------------------------------
    -4--7--4--10-9------------------------------
    -2--5--2--8--7-4-5-5-4-3--------------------…
  • fig.1
    
    d--7-7---7-9--77-9--5-3-2-
    a--7-7---7-9--77-9--5-3-2-
    D--5-7---7-9--77-9--5-3-2-
    
    
    this is the intro - play 3x 
    
    then
    
    fig.2
    
    d--7-77--7-77--7-77--7-77--7-0-----
    a--7-77--7-77--7-77--7-77--7-0-----…
  • Standard Tuning - E A D G B E
    
    
    Intro
    
    |---------------|-----------------------|
    |---------------|-----------------------|
    |---------------|-----------------------|
    |-9-9-7-9-109-7-|-2-2-2-2-2-2-2-2-------|
    |-7-7-5-7-8-7-5-|-2-2-2-2-2-2-2-2-0-2~~-|
    |---------------|-0-0-0-0-0-0-0-0-------|…
  • intro & verso
    
      m mmm m mm m m m  mm m m mmm m m  m mmm m mmm m m  m mmm m mm m m m
    e|-----------------|---------------|----------------|-----------------|
    b|-----------------|---------------|----------------|-----------------|
    g|-----------------|---------------|----------------|-----------------|
    d|-----------------|---------------|----------------|-----------------|
    a|5-555-5-55-5-5-5-|55-5-5-555-6-6-|6-555-5-555-5-5-|5-555-5-55-8-8-8-|
    E|-----------------|---------------|----------------|-----------------|…
  • bassline:
    
       1  +  2  +  3  +  4  +  1  +  2  +  3  +  4  +
    G]-------------------------------------------------|
    D]-------------------------------------------------|
    A]-------------------------------------------------|
    D]-0--0--0--0--0-----0--0-----0-----0-----0--0--0--|
    
    G]-------------------------------------------------|
    D]-------------------------------------------------|
    A]-------------------------------------------------|
    D]-3--------3--3/-5--5--------5--5--0--2-----2--2--|
    
    
    after…
  • Drop D Tuning - D, A, D, G, B, E
    
    Intro
    
    |-------|-----------------------------|---------------------|
    |-------|-----------------------------|---------------------|
    |-VOICE-|-----------------------------|---------------------|
    |--AND--|-----------------------------|-6~~-----------------|
    |-DRUMS-|-----------------------------|-6~~-5-----5-----5---|
    |-------|-6-6-6-6-6-6-6-6-6-6-6-6-6-6-|-6~~---6-6---6-6---6-|…
  • [font=courier]intro/bridge
        1   +   2   +   3   +   4   +
      E---------------------------------|
      B---------------------------------|
      G---------------------------------|
      D---------------------------------|…
  • 1       2       3   +  4   +     1       2       3   +
    [E---------------------------------------------------------
    B---------------------------------------------------------
    G--3-------3---------4------4------3-------3---------4----…
  • (3m:33s)
          1   +   2   +   3   +   4   +     1   +   2   +   3   +   4   + 
       e|---------------------------------|---------------------------------
       b|---------------------------------|---------------------------------…
  • tune down to C
    
    . - palm mute
    
    riff 1
    -------------------------------------------------------------|
    -------------------------------------------------------------|
    -------------------------------------------------------------|
    ------------------------------7-----------------5--------7---|
    -------------3----------------5-----------------3--------5---|
    0-0---0---00-1-0-0-0---0---00----0-0-0-0-0-0-0-----0-0-3-----|
    .…
  • intro and verse
    e------------------------------------------------------
    b------------------------------------------------------
    g------------------------------------------------------
    d-0-0-3-3-3-3-3-3-0---0--5-------------------------------
    a-0-0-3-3-3-3-3-3-0---0--5-------------------------------
    D-0-0-3-3-3-3-3-3-0---0--5-------------------------------
    
    chorus(palm…
  • Intro - play 2 times:
    
    E|---------------------------------|---------------------------------|
    B|---------------------------------|---------------------------------|
    G|---------------------------------|---------------------------------|
    D|---------------------------------|---------5-----------------------|
    A|---------2-----3---3-2-------2---|-------------5-------------------|
    E|-3---5-----5-3---------5-3-5---5-|-3-------------------------------|…
  • Tuning: Standard (E A D G B E)
    
    Intro
    E|--------------|
    B|--------------|
    G|---77----9999-|
    D|---77----9999-|
    A|---55----7777-|
    E|-0----00------|
    
    Verse
    E|---------|
    B|---------|
    G|---------|
    D|---------|
    A|---------|
    E|-0202023-
    
    Verse…
  • (Drop-D)
      
    
    Intro 
    e|---------------------------------|---------------------------------|
    b|---------------------------------|---------------------------------|
    g|---------------------------------|---------------------------------|
    d|---------------------------------|---------------------------------|
    A|-0-0-0-0-0-0-0-0-0-0-0-0-0-0-0-0-|-0-0-0-0-0-0-0-0-0-0-0-0-0-0-0-0-|
    D|-0-0-0-0-0-0-0-0-0-0-0-0-0-0-0-0-|-0-0-0-0-0-0-0-0-0-0-0-0-0-0-0-0-|…
  • Tuning: Standard (E A D G B E)
    
    ~=Let ring
    
    
    Intro
    E|---------------------------------------------------------------------------||
    B|---------------------------------------------------------------------------||
    G|---------------------------------------------------------------------------||
    D|-2---4--44-----------------------------------------------------------------||
    A|-2---4--44---4--------5----------------------------------------------------||
    E|-0---2--22-----3~--2-----4~------------------------------------------------||…
  • Drop D Tuning - D, A, D, G, B, E
    
    Intro
    
    |----------------------------------------------------------------------------|
    |----------------------------------------------------------------------------|
    |----------------------------------------------------------------------------|
    |----------------------------------------------------------------------------|
    |-11-11-12-<12>-11---11---11-11-<12>---11-11-12-<12>-11---11---11-11-0-3^-12-|
    |-11-11-12-<12>-11---11---11-11-<12>---11-11-12-<12>-11---11---11-11-0-3^-12-|
    
    Verse
    
    |----------------------------------------------------------------------------------|
    |----------------------------------------------------------------------------------|
    |----------------------------------------------------------------------------------|
    |----------------------------------------------------------------------------------|
    |-11-11-11-11-11-11-11-11-11-11-11-11-11-11-11-11-11-11-11-11-11-11-11-11-11-11-12-|
    |-11-11-11-11-11-11-11-11-11-11-11-11-11-11-11-11-11-11-11-11-11-11-11-11-11-11-12-|…
  • Drop-D tuning
    
    ^=palm mute
    
    
    1st riff
    
    g  --7--5--7--8--4-5  --7--5--7--8--8-8-7
    d  --7--5--7--8--4-5  --7--5--7--8--8-8-7
    a  --5--3--5--6--2-3  --5--3--5--6--6-6-5
    D  00-00-00-00-00---  00-00-00-00--------…
  • Standard Tuning
    
    
     Verse:
    E|-----------------------------------|
    B|-----------------------------------|
    G|-----------------------------------|
    D|-2--2--4--3--3-3-3-3-3-------------|
    A|-0--0--0--2--2-2-2-2-2-------------|
    E|-----------------------------------|…
  • Drop-D tuning
    
    
    intro
    
    E ----------------------------------------
    B ----------------------------------------
    G ----------------------------------------
    d-(0)---------------------(0)-------------
    a-(5)---------------------(0)-------------
    D-(0)---------------------(0)-------------
    
    fig.1
    
    E…
  • (4/4)
    
    Begin by building feedback in the key of E.
    
    
    Intro Riff
        1  +  2     3     4  +    1     2     3     4
     E|-------------------------|-------------------------|
     B|-------------------------|-------------------------|…
  • Tuning: Drop-D
    
    
    Play this sequence 2x
    
     E)------------  ---------- | -------------- |
     B}-/10--------  \8----8--- | -5------------ |
     G)-/12--------  \10---10-- | -7------------ |
     D)-/12--------  \10---10-- | -7------------…
  • Drop D Tuning - D, A, D, G, B, E
    
    Intro
                      |                   1,2|                           3|
    |-----------------|-------------|--------|----------------------------|
    |-----------------|-------------|--------|----------------------------|
    |-----------------|-------------|--------|----------------------------|
    |-----------------|-------------|--------|----------------------------|
    |-1-0-0-1-0-0-1-0-|-12-0-0-12-0-|-3^-2-3-|-0-9-0-0-10-0-0-13-0-0-12~~-|
    |-1-0-0-1-0-0-1-0-|-12-0-0-12-0-|-3^-2-3-|-0-9-0-0-10-0-0-13-0-0-12~~-|…
  • Standard Tuning - E, A, D, G, B, E 
    
    Intro/Verse 
    
    |-------------------------------------------------------------------| 
    |-------------------------------------------------------------------| 
    |-------------------------------------------------------------------|…
  • dropped d tuning
    
    .     palm muting (sometimes slight sometimes hard, listen to the record)
    X     muted string (with the freting hand)
    ~     vibrato
    b[..] bend (1/2 = half; 1 would be full)
    p     pull off
    /     slide…
  • (0:00 - 1:45)
    Keep repeating
    g-----------------------------------------------------|
    d-----------------------------------------------------|
    a-------2--4-4-----------------0-0--------------------|
    e--0-0----------3-3--0--3-3-3-------0-0-1-------------|
    
    (1:45…
  • E ---------------------------------------------|
     B ---------------------------------------------|
     G -----------------------------  INTRO REPEAT--| 2X
     D ---------------------------------------------|
     A ----------200--------------------------------|…
  • Intro (4X):
         4/4
    
          1  +  2  +  3  +  4  +    1  +  2  +  3  +  4  +
       e|-------------------------|------------------------|
       b|-------------------------|------------------------|
       g|-------------------------|------------------------|…
  • Tuning: Drop-D
    
    
    Intro - play 4.5 times
    
        1   2   3   4   1   2   3   4     1   2   3   4   1   2   3   4
     e|---------------------------------|---------------------------------|
     B|---------------------------------|---------------------------------|…
  • Tuning: Standard (E A D G B E)
    
    Intro The ()=Palm mute
    E|--------------------------------------|
    B|--------------------------------------|
    G|----------------------------8-------8-|
    D|-(7777)-7-(7)-7-(7)-7-(777)-8-(777)-8-|
    A|-(7777)-7-(7)-7-(7)-7-(777)-6-(777)-6-|
    E|-(5555)-5-(5)-5-(5)-5-(555)---(555)---|
    
    Verse
    E|--------------------------------------|
    B|--------------------------------------|
    G|--------------------------------------|
    D|-(7777)-7-(7)-7-(7)-7-(777)-8-(777)-8-|
    A|-(7777)-7-(7)-7-(7)-7-(777)-8-(777)-8-|
    E|-(5555)-5-(5)-5-(5)-5-(555)-6-(555)-6-|
    
    End
    E|--------------|
    B|--------------|
    G|--------------|
    D|-2--4--3333-2-|
    A|-2--4--3333-2-|
    E|-0--2--1111-0-|
    
    Outro
    E|-----------------|
    B|-----------------|
    G|-----------------|
    D|-2--44443333~--2-|
    A|-2--44443333~--2-|
    E|-0--22221111~--0-|…
  • Drop D tuning 
     
     
    . = palm mute
    / = slide to
    ~ = vibrato
    * = finger mute
     
    
    D|-0--1--0--1--6--0--1--0--6--5--5--4--3--3--3--3--3--3--3--------
    A|-0--1--0--1--6--0--1--0--6--5--5--4--3--3--3--3--3--3--3--------
    D|-0--1--0--1--6--0--1--0--6--5--5--4--3--3--3--3--3--3--3--12/0--…
  • Drop D Tuning - D, A, D, G, B, E 
    
    Intro 
    
    |----------------------------------|-------------------------------------| 
    |----------------------------------|-------------------------------------| 
    |----------------------------------|-------------------------------------|…
  • Riff 1: (play 3X)
    
    b------------------------------------------
    g------------------------------------------
    d-9--8-----9--8-----8--7-----8--7-----6--7-
    a-7--6-----7--6-----6--5-----6--5-----4--5-
    e-------00-------00-------00-------00------
    
    b----------------------------------|----------|
    g----------------------------------|----------|
    d-9--8-----9--8-----6--7--8--7-----|-8--7-----|
    a-7--6-----7--6-----4--5--6--5-----|-6--5-----|
    e-------00-------00-------------00-|-------00-|
    
    Replace…
  • bassline throughout entire song -
    (guitar occasionally joins in quietly):
    
    G---------------------------------|-----------------|
    D---------------------------------|-----------------|
    A---------------------------------|-5-----------7---|
    E-0-----3-----0-----5-----7---6---|-------7---5-----|
    
    
    main…
  • Intro:
     E|----------------------------|
     B|----------------------------|
     G|----------------------------|
     D|----------------------------|
     A|----------------------------|
     E|-14~14~14~14~14~14~14~14~14-| 9x
    
     E|-----------------|…
  • Intro [x = Finger mute.]
       1   2   3   4   1   2   3   4     1   2   3   4   1   2   3   4
     e---------------------------------|---------------------------------|
     b---------------------------------|---------------------------------|…
  • Drop D Tuning - D, A, D, G, B, E
    
    Intro
                                           1|                      2|
    |-------|-------------------------|-----|-----------------------|
    |-------|-------------------------|-----|-----------------------|
    |-6~~-^-|-------------------------|-----|-----------------------|
    |-------|-4~~-4-4-4-5---4~~-4-4-4-|-6-5-|-7-6-7-5-6-4-0-1-1-1-4-|
    |-------|-4~~-4-4-4-5---4~~-4-4-4-|-6-5-|-7-6-7-5-6-4-0-1-1-1-4-|
    |-------|-4~~-4-4-4-5---4~~-4-4-4-|-6-5-|-7-6-7-5-6-4-0-1-1-1-4-|…
  • Tuning: Standard
    
    (Distortion)  Play this 8 times
    |-----------------------|
    |-----------------------|
    |-----------------------|
    |-----------------------|
    |-4---0-2-3-2-0---------|
    |---2-----------2-------|
    
    
    |---------|---------|---------|---------|---------|
    |---------|---------|---------|---------|---------|
    |---------|---------|---------|---------|---------|
    |-4--4--4-|-4--4--4-|-4--4--4-|-4--4--4-|-4--4--4-|
    |-4--4--4-|-4--4--4-|-4--4--4-|-4--4--4-|-4--4--4-|
    |-2--2--2-|-2--2--2-|-2--2--2-|-2--2--2-|-2--2--2-|
    
    |---------|-------------------|
    |---------|-------------------|
    |---------|-------------------|
    |-4--4--4-|-4--4--4--4--------|
    |-4--4--4-|-4--4--4--4--------|
    |-2--2--2-|-2--2--2--2--------|…
  • Main Riff- 00:00-2:03 *there are some slight variations in the verses that are easy to 
    out so I won't bother putting them in.
    
    e-------------------------------------------------------------|
    B-------------------------------------------------------------|
    G-------------------------------------------------------------|
    D-0---0--0-0--0-0-0--0-0--0---0-0--0-0-0--0-0--0---0-0--0-0-0-|
    A-0---0--0-0--0-0-0--0-0--0---0-0--0-0-0--0-0--0---0-0--0-0-0-|
    D-0---0--0-0--0-0-0--0-0--0---0-0--0-0-0--0-0--0---0-0--0-0-0-|
    pm.…
  • Verse
     e---------------------------------------------------------------------------------|
     b---------------------------------------------------------------------------------|
     g---------------------------------------------------------------------------------|…
  • Main riff:
    E|------------------------------------------------------------|
    B|------------------------------------------------------------|
    G|------------------------------------------------------------|
    D|--0-00-0-00-0-0-0-00--0-00-0-00-0-1-1-1---------------------|
    A|--0-00-0-00-0-0-0-00--0-00-0-00-0-1-1-1---------------------|
    D|--0-00-0-00-0-0-0-00--0-00-0-00-0-1-1-1---------------------|
    PM…
  • Tuning:Standard
    
    
    Intro
    e-------------------------------------|
    b-------------------------------------|
    G-------------------------------------|
    D-7~~~~~~~~7~~~~~~~~7~~~~~~~~7~~~~~~~~|
    A-7~~~~~~~~7~~~~~~~~7~~~~~~~~7~~~~~~~~|
    E-5~~~~~~~~5~~~~~~~~5~~~~~~~~5~~~~~~~~|
    
    
    Riff…
  • Intro: 
    E|-----------------|
    B|-----------------|
    G|-----------------|
    D|-----------------|
    A|-17~17~17~17~17~-|
    E|-15~15~15~15~15~-|   X19
     
    E|-----------------|
    B|-----------------|
    G|-------------0---|
    D|-------------0---|
    A|-17b19~~~~~~-0---|
    E|-15b17~~~~~~-----|…
  • tune E string down to D
    
    
    First Riff
    E--------------------------------------------------------------|
    B--------------------------------------------------------------|
    G--------------------------------------------------------------|
    d--------------------------------------------------------------|
    a-------1-3-------------------1---gradually…
  • Drop-D Tuning
    
      
    Riff 1: (play 3X)
       1   +   2   +   3   +   4   +     1   +   2   +   3   +   4   +   
     e||---------------------------------|---------------------------------||
     b||---------------------------------|---------------------------------||…
  • Intro
      1   +   2   +   3   +   4   +   1   +   2   +   3   +   4   +
    e-----------------------------------------------------------------|
    b-----------------------------------------------------------------|
    g-----------------------------------------------------------------|
    d-----------------------------------------------------------------|
    a-2---3---2---0-----------------------------------0-------2-------|
    e-----------------3-----------3-------3---3---3-------------------|
    
    e-----------------------------------------------------------------|
    b-----------------------------------------------------------------|
    g-----------------------------------------------------------------|
    d-----------------------------------------------------------------|
    a-----------------------------------------------------------------|
    e-0-------------------------------------------0-------0---0---0---|
    
    Guitar…
  • 6/8
    [E----------------------------------------
    B---------------------------------------- } repeat 3x
    G----------------------------------------
    D----6-5---5-4----4-3---3-4----4-5---5-6-
    A--5-----4------3-----2------3-----4-----
    D----------------------------------------]…
  • Riff 1 (play 4 times):
    e ---------------------------------|---------------------------------|
    b ---------------------------------|---------------------------------|
    g ---------------------5-----------|-----------------5-------5-------|
    d…
  • -*1st Part*-
    
      Riff 1 
    E|---------------------------------|    
    B|---------------------------------|
    G|---------------------------------|
    D|-----4-----4---------4-----4-----|
    A|-3-------3-----3p2-2---2-2---0-0-|…
  • Intro
    
    e---------------------------------|---------------------------------|
    b---------------------------------|---------------------------------|
    g---------------------------------|---------------------------------|
    d---------------------------------|---------------------------------|
    a-----------------7-------7---5---|-----5-------5---4---5-----------|
    e-0-------0---0-------------------|-------------------------5-------|…
  • Drop D Tuning - D, A, D, G, B, E
    
    Intro
    
    |------------------|----------------------------------------------------|
    |------------------|----------------------------------------------------|
    |------------------|----------------------------------------------------|
    |-5-4-3-0---3^~~-0-|----------------------------0--0------3-----5-5-4-3-|
    |-5-4-3-0---3^~~-0-|----0-11-12--11--7~~-----0--0----3-----5---------|
    |-5-4-3-0---3^~~-0-|------------------------7~~-0--0--3-----5-----------|…
  • Drop D tuning
    Palm Muting = ........
    
    
    A-----|
    D-2~--| let ring
    
    verse:
    
    A----------------|
    D-2-2-2-2-2-2-2-2| repeat many times
      . . . . . . . .
    
    chorus: 
    
    part1
    
    A-3-2-x-x-2--2-2-|
    D-3-2-x-x-2--2-2-|…
  • e|----0--------0-3-2-0-5-----0-----0-3----3-2-0-----------0---|
    b|-1-----1--1-------------1-----1-------1-1-1-1--1-1-1-1------|
    g|-2-----2--2-------------2-----2-------2-2-2-2--2-2-2-2------|
    d|-2-----2--2-------------2-----2-------2-2-2-2--2-2-2-2------|
    a|------------------------------------------------------------|
    e|------------------------------------------------------------|
    
    e|---------------------------------|
    b|-----------1------------------1--|
    g|-4-5-4-2---2--0---0--4-5-4-2--2--|
    d|-----------2----2-------------2--|
    a|---------------------------------|
    e|---------------------------------|…
  • do this a whole bunch of times
    
    e|-----------------------------------                  e|----------------|
    b|-----------------------------------  every once in   b|----------------|
    g|-----------------------------------…
  • Guitar:
    
    e --------------------|
    b -6b8-etc------------|
    g -6b8-etc------------|
    d --------------------|
    a --------------------|
    d --------------------|
    
    Bass:
    
    g ---------------------|
    d ---------------------|
    a…
  • Riff 1:
    -----------------------------------------|
    -----------------------------------------!
    -----------------------------------------!
    -----------7----------------6------------!
    --0-1---0--5-------0-1---0--4--0-0-0-0-0-!
    --0-1---0----------0-1---0-----0-0-0-0-0-!
    
    Play…
  • Dropped-D Tuning
    
    Intro (Bass arranged for guitar)
    E |----------------------------------|
    B |----------------------------------|
    G |.--------------------------------.|
    D |.--------------------------------.|
    A |--5---5-5-5-5-5-5-5-5-5-5---------|
    D…
  • Standard tuning
    
    INTRO:
    |---------------------------------------------------|
    |---------------------------------------------------|
    |---------------------------------------------------|
    |----------------------------------------9-9--12--8-|
    |----------------------------------------7-7--10--6-|
    |-12/--0-0--12/--0-0--12/--0-0--12/-0-0-------------|…
  • riff 1 - verse
    
    E|-------------------------------------------------|
    B|-------------------------------------------------|
    G|-------------------------------------------------|
    D|-------------10--9---7---------------7-----------|
    A|-9--9--9--9--8---7---5---9--9--9--9--5---7---8---|
    E|-7--7--7--7--------------7--7--7--7------5---6---|
    
    
    riff…
  • Riff 1 (5X)
    
      1   +   2   +   3   +   4   +     1   +   2   +   3   +   4   +   
    e---------------------------------|---------------------------------|
    b---------------------------------|---------------------------------|
    g---------------------------------|---------------------------------|
    d---------------------------------|-----2-----------2-----------2---|
    a---------------------2---5---2---|-5---0-----------0-----------0---|
    D---------------------2---5---2---|-5-------------------------------|
    
    e---------------------------------|---------------------------------|
    b---------------------------------|---------------------------------|
    g---------------------------------|---------------------------------|
    d---------2-----------2-----------|---------------------------------|
    a---------0-----------0---5---2---|-0---------------0-----------0---|
    D-------------------------5---2---|-0---------------0-----------0---|…
  • Standard Tuning - E, A, D, G, B, E
    
    Intro
    
    |--------|-------------------------------------------------------|
    |--------|-------------------------------------------------------|
    |--------|-------------------------------------------------------|
    |--------|-2-2-----2-2-----2-2-----2-2-------------------------2-|
    |-6~~-6^-|-0-0-1~~-0-0-1~~-0-0-1~~-0-0-1-------------------1~~-0-|
    |--------|-------------------------------3-3^--------|…
  • 4/4
    
     intro
       2x
     e|----------------|----------------|----------------|----------------|
     b|----------------|----------------|----------------|----------------|
     g|------------0---|----------------|------------0---|----------------|…
  • Standard Tuning - E, A, D, G, B, E 
    
    
    Intro 
    
    Guitar 1 
    |-----------------|-----------------------------| 
    |-----------------|-----------------------------| 
    |-------6-6h7-6~~-|-------6-6h7-7-6-------------| 
    |-----7-----------|-----7-----------7-6---------|…
  • INTRO - play 8X approx:
       1   2   3   4   1   2   3   4     1   2   3   4   1   2   3
    E|---------------------------------|-----------------------------|
    B|---------------------------------|-----------------------------|
    G|---------------------------------|-----------------------------|
    D|---------------------------------|-2---2---2-2---2-2---2-2-2-2-|
    A|-12--10--12--10--12--0-0-0-0-10--|-0---0---0-0---0-0---0-0-0-0-|
    A|-0---0---0---0---0---0-0-0-0-0---|-0---0---0-0---0-0---0-0-0-0-|…
Наверх