Аккорды «Mew»

Mew
Датская инди-рок-группа Mew была создана в 1995 году четырьмя школьниками Йонасом Бьёрре, Бо Мадсеном, Йоханом Волертом и Силасом Йоргенсеном. Вдохновлённые творчеством My Bloody Valentine, Pixies и Dinosaur Jr., в 1997 году они записали дебютный альбом A Triumph For Man тиражом всего в 200 копий. Пластинку растащили в два счёта, а о Mew заговорили в прессе , как о подающей надежды группе. Кое-как укрепившись на датской инди-сцене, Mew выпускают в 2000 году второй альбом Half The World Is Watching… Читать полностью... Датская инди-рок-группа Mew была создана в 1995 году четырьмя школьниками Йонасом Бьёрре, Бо Мадсеном, Йоханом Волертом и Силасом Йоргенсеном. Вдохновлённые творчеством My Bloody Valentine, Pixies и Dinosaur Jr., в 1997 году они записали дебютный альбом A Triumph For Man тиражом всего в 200 копий. Пластинку растащили в два счёта, а о Mew заговорили в прессе , как о подающей надежды группе. Кое-как укрепившись на датской инди-сцене, Mew выпускают в 2000 году второй альбом Half The World Is Watching Me, вознёсший их до статуса главной рок-группы Дании. Стиль группы несколько видоизменился, хотя главная "фишка" - высокий голос Йонаса Бьёрре и тексты на тему ночных кошмаров, осталась неизменной. Если первый альбом - это инди-рок в чистом виде, то во втором присутствуют элементы танцевального диско (Mica) и традиционных скандинавских мелодий (Saliva, King Christian). Третий альбом Frengers вышел в свет в 2003 году. И хотя основу диска составляло 70% предыдущего релиза, он был не похож на своего прдешественника. Альбом оказался прорывным. Синглы Am I Wry? No, She Came Home For Christmas, Comforting Sounds и 156 вихрем влетели в европейские чарты. Клипы стали ротироваться на ТВ. Ещё больший успех принёс следующий релиз - And The Glass Handed Kities и предваряющий его сингл Special с шедевральным видеоклипом на него. Несмотря на успех, эта пластинка - самая экспериментальная из всех. Её особенность заключается в том, что песни сливаются одна с другой, образуя единое целое, можно даже назвать её инди-оперой. Кроме Special вышли ещё два сингла - Why Are You Looking Grave и The Zookeeper's Boy. в 2006 году вышел первый DVD группы - Live In Copenhagen, европейское издание первого альбома A Triumph For Man с бонус-CD, а сама группа посетила Россию, отыграв полуторачасовой концерт в московском клубе 35mm. Также в этом году группу покинул бессменный басист Йохан Волерт по причине рождения ребёнка. Не найдя ему достойную замену, Mew продолжили свою творческую и концертную деятельность уже как трио. Годом позже был переиздан второй альбом Half The World Is watching Me, также включающий в себя бонус-CD. В 2009 году команда выпустила новый альбом No more stories Are told today I'm sorry They washed away No more stories The world is grey I'm tired Let's wash away, получивший спорные отзывы критики и публики. В ноябре 2010 года группой выпущен сборник лучших песен Eggs Are Funny, помимо хитов содержащий новый трек Do You Love It?. 14 июня 2014 года на фестивале в Дании Йохан Волер официально вернулся в состав Mew. Скрыть...
Популярные аккорды Mew:
алфавиту | просмотрам | случайно
  • Am   Em6     Dm6     G
    And I'm sorry about you and me
    
           Am   Em6    Dm6      G
    And I'm sorry about us
    
               Am        
    You try to give your best 
    
                Em6    Dm6   G
    but to what end, saliva…
  • 0:11
    |-----------------------------------------------------------------------
    |-8-------8-------10-----10------10-------10-------10-------10----------
    |---10------10-------9------9-------10-------10-------10-------10----10-
    |------10------10------10-----10-------10-------10-------10-------10----
    |-----------------------------------------------------------------------
    |-----------------------------------------------------------------------
    
    0:26
    |-8-----7-----5-
    |-10----8-----6-
    |-10----10----7-
    |-10----10----7-
    |-8-----7-----5-
    |---------------…
  • Verse:
    Cm                                Eb
    I'm caught in the symmetry of your mind. 
    Cm                         Eb
    But I'm not happier than you. 
    
    Eb            F      G#
    Did I really see you or was it a dream? 
    Eb…
  • Tuning: EADGBE
    
    
    CHORDS FOR BREAK
    
    E5: x799xxx
    Eb5: x688xxx
    F5: x81010xx
    F#5: x91111xxx
    G5: x101212xxx
    Ab5: x111313xxx
    
    
    MAIN RIFF actually i think this is played in a high note, but in a deeper note, it also…
  • Standard melodyline goes like this:
    
    E|-----------------------------------------------------------------------------------------------|
    B|--12--9-7-9-7-----12--9-7-9-7-----12--9-7-9-7-----12--9-7-9-7------12--9-7-9-7------12--9-7-9-7|
    G|9---------------8---------------6---------------8----------------6---------------8-------------|
    D|-----------------------------------------------------------------------------------------------|
    A|-----------------------------------------------------------------------------------------------|
    E|-----------------------------------------------------------------------------------------------|
    
    
    Towards…
  • Am          G                F
    Sleeping, I saw you in a dream. 
    Am        G                      F
    Hey, I'm feeling kinda sick these days.
     
    Am G x3
    Am
    I come along. 
                 G
    I smell the air.…
  • A                        F
    Enable to bring out the something
         G                         D        E
    You want to know beneath the snow
    
       A                      F
    In winter you're an affliction 
                 G…
  • Intro: C#m  F#m  Em  A (x2)
    
    C#m  B        F#m 
    In   northern time 
          Em            A    C#m
    Sigh, what does the mind cover 
    B      F#m 
    Are we talking? White is the winter 
    
    F#m                          A…
  • Intro: Em C D
    
    Em             C
    In your compartment 
                  D                                
    I'm sorry under a time machine 
    
    a silhouette of someone 
    
    Em                  C  
    Light hits your curtains…
  • Tuning (from low to high): G Eb G Bb Eb G
    
    
    Riff.
                       
    G |---------------------------|---------------------------|
    Eb|--------0------------0-----|--------0------------0-----|
    Bb|---7-7----7-------7----7---|---4-4------4---4-4----0---|
    G…
  • Intro: Play chorus
    
    Vers:
    
    Bm
    
    D            Em7
    All of us now 
                   Bm
    Dent as we fall 
         D            Em7
    Too amorous-like 
    
    We call out 
    
    
    Chorus:
    G
             D       Am
    Why are we so alone?…
  • Intro: Bb Dm
    
    Bb                     Dm
    So they went to their car.
    Bb                      Dm 
    I was lost in the crowd when 
    Bb                 Dm
    I tried to find my way. 
    Bb                     Dm
    Nothing else…
  • Capo on 1st
    
    Intro:
    C         G          Fmaj7  Am        Em        F 
    
    C         G     Fmaj7 Am Em F
    I wanted to remember, my    mica
    C               G              Fmaj7
    You helped me again to think of the…
  • h - hold
    
    Intro: E  A
    
    e|------0------------------4-----|
    B|---7-----4--7--4------0--------|
    G|-------------------------------|
    D|-------------------------------|
    A|-------------------------------|
    E|-------------------------------|…
  • CAPO 5B 
    
    INTRO, G V
    
    G                D         Bm
    I was on my way, I swear
                 Em              C
    But I took a wrong turn, there
                                    D
    For I zigged when I should have zagged…
  • Bb       Em
    No more trying
    A                        Em
    Too much terribleness these days
                 C           Em
    And what you thought was true
             C               F
    Well, they were lying to you…
  • Tuning:EADGBE
    Intro F Bb
    
    F               Bb  
    Tonight I won't say
    F             Bb
    tonight it's ok.
    F                             
    Always had a feeling it would pass. 
                                    Bb
    Never…
  • A
       Soft sheets. Whats this about
    A#                      F
       Inside your mahogany cyprus
                              A
       As long as were me and you
    
       we should not lose terrain
    A#                        F…
  • Standard tuning
    
    Capo on 1st fret
    
    
      Fsus4
    e|--1--|
    B|--1--|
    G|--3--|
    D|--3--|
    A|--1--|
    E|--1--|
    
    
    Intro:
    
    Am  Fsus4  C   A#
    
    
    Verse 1:
    
    Am            Fsus4       C
    Always not to exaggerated fights…
  • Em                 Bm                           C                             D
    
    Em                 Bm                           C                             D
    From my boat I can see your house, and when the lights are…
  • Key: A
    
    Tuning: Standard EADGBe
    
    Chords used:
    A -   x02220
    C#m - x46654
    D -   xx0232
    E -   022100
    F#m - 244222
    Bm -  x24432
    C#m - x46654
    
    
    Intro: A--C#m--D--A--C#m--D-E-
    
    
    Verse 1:
    A                C#m…
  • Tuning: The song is tuned half step up (FCG#D#A#F) on the CD, but there is a
    version out there which is played with normal tuning.
    
    Intro:  (x2)
    
    G5 D5 E5 B5
    
    D5              A5
    Her Voice is Beyond Her Years…
  • Standard tuninng
    
    
    Intro:
    
     Asus4     A        D        Asus4 A
    |-5--------0--------2--------0-----0-------|
    |-5--------2--------3--------3-----2-------|
    |-7--------2--------2--------2-----2-------|
    |-7--------2--------0--------2-----2-------|
    |-5--------0-----------------0-----0-------|
    |-5----------------------------------------|
    
    
    
    Verse…
  • Intro: A | C#m | A | Bm | F#m
    
    ----------------------------------------------------------
    
    C#m                                 A
    
    Wake me up, only nightmares take me in
    
                  Bm                        F#m
    through…
  • Standard tuning
    
        A          F#m  D        C#m
    You drew me carto---ons...so playful
        A          F#m  D        E
    You drew me carto---ons...so playful (Oh)
        A          F#m  D        C#m
    You drew me carto---ons...so…
  • Em
    In parallel sea what would I be?
       C                 F
    My first love said to me,
                       C        E
    "Tears out for the world to see"
               F
    I would not be
                     C           F
    I did…
  • Standard Tuning
    
    Tuning : Standard Tuning
    
    Intro
    G|---------------------------7------------------------------------|
    B|---0----7----0-----7-------7------------------------------------|
    E|----------------------------------------------------------------|
    D|----------------------------------------------------------------|
    A|----------------------------------------------------------------|
    E|----------------------------------------------------------------|
    
    
    B…
  • Intro:
    
    |---------2------2-------2------2------0--------------------------------|
    |-------3------3---3---3------3------3----------------------------------|
    |-----4------4-------0------0------0------------------------------------|
    |------------------------------------------0----------------------------|
    |-----------------------------------------------------------------------|
    |-----------------------------------------------------------------------|
    
    And…
  • |----0---------0----------0-------------1----0--------------3--|
    |----1---------3----------1-------------1----0--------------3--|
    |----0---------0----------0-------------2----2--------------0--|
    |----2---------4----------2-------------3-or-3--------------0--|
    |----3---------5----------3-------------3----3--------------2--|
    |----3---------5----------3-------------1----1--------------3--|…
  • Tuning: Db Ab Db Gb Bb Db
    
    ----------------------------------------------------------------------------|
    ----------------------------------------------------------------------------|
    ----------------------------------------------------------------------------|
    --------------------4-------------------------------------------------------|
    ----------------------7-6------------------------2-2-2----------------------|
    --7-7-7--7-7-7--7-7--------5-5-5--0-2-0-3-3-3-3-3---------------------------|
    
    ----------------------------------------------------------------------------|
    ----------------------------------------------------------------------------|
    ----------------------------------------------------------------------------|
    ----------------------4-----------------------------------------------------|
    ------------------------2-1-----------------------2-2-2---------------------|
    --7-7-7--7-7-7--7-7---------5-5-5--0-2-0-3-3-3-3----------------------------|
    
    ----------------------------------------------------------------------------|
    ----------------------------------------------------------------------------|
    ----------------------------------------------------------------------------|
    --------------------6-4-3----------2---4-4-4-4-6-7-6------------------------|
    --------------------------4-4-4--2---2--------------------------------------|
    -3-3-3--3-3-3--3-3----------------------------------------------------------|
    
    ----------------------------------------------------------------------------|
    ----------------------------------------------------------------------------|
    ----------------------------------------------------------------------------|
    --------------------6-4-3----------2---4-4-4-4-6-7-6------------------------|
    --------------------------4-4-4--2---2--------------------------------------|
    -3-3-3--3-3-3--3-3------------------------------------2-2-2-----------------|…
  • Tuning :- eb    < Half a step down to make use of the open Gb
               Bb    
               Gb
               Db
               Ab
               Eb
    
    ****************************************************************************…
  • Key: D
    
    Tuning: Standard EADGBe
    
    Chords used:
    Bm      x24432
    A       x02220
    Em      022000
    G       320033
    F#      244322
    D       xx0232
    F#/Bb   x143xx
    
    
    Intro: D  G  A  F# G A  x2
    
    
    Verse 1: Silence
    Bm…
  • This is played from 1:16 (0:22 in the radio version) and before this the first two rows 
    played, with some modification. This should, however, be enough to get you started with 
    song.
    
    
    Part 1
    
    |----------------|----------------|----------------|----------------|
    |----------------|----------------|----------------|----------------|
    |-----------2----|----------------|----0---0-----0-|---2------------|
    |----0h5---------|0-------------0-|----------------|--------4-------|
    |2-------2-----2-|--------2-------|2----------2----|2-----2---------|
    |----------------|----------------|----------------|----------------|
    
    
    |----------------|----------------|----------------|----------------|
    |----------------|----------------|----------------|----------------|
    |----0---0-------|-0--------------|----0---0-------|-0--------------|
    |-------------0--|--------------0-|-------------0--|--------------0-|
    |----------------|----------------|----------------|----------------|
    |3---------3-----|3-------3-------|3---------3-----|3-------3-------|
    
    
    |----------------|----------------|----------------|----------------|
    |----------------|----------------|----------------|----------------|
    |----------------|----------------|----------------|----------------|
    |----2---2-4---0-|2-------------0-|----2---2-4---0-|----2---2p0-----|
    |2---------------|----------------|0---------------|----------------|
    |----------------|--3----3--------|----------------|3---------------|
    
    Part…
  • Intro 
    
    Em  D  C
    
    Em 
    It doesn't matter where you are. 
    D
    Someone is there 
    C
    with you, I fear. 
    
    Em
    It doesn't matter where you are. 
    D
    I can't complain. 
    C
    Ignore the stain. 
    
    D         A      Em    G
    Christmas…
  • The amount each chord is played isn't right but it's not hard to pick it out.
    
    E||----------------------|----------------------|----------------------|
    B||----------------------|----------------------|----------------------|
    G||----------------------|----------------------|--9----9----9----9----|
    D||--6----6----6----6----|--6----6----6----6----|--6----6----6----6----|
    A||--6----6----6----6----|--6----6----6----6----|--6----6----6----6----|
    E||--4----4----4----4----|--0----0----0----0----|--0----0----0----0----|
    
    ----------------------|------------------|----------------------|
    ----------------------|------------------|----------------------|
    --8----8----8----8----|------------------|----------------------|
    --6----6----6----6----|------------------|--2----2----2----4----|
    --6----6----6----6----|------------------|--2----2----2----2----|
    --0----0----0----0----|------------------|--0----0----0----0----|
    
    ----------------------|----------------------|---------------||
    ----------------------|----------------------|---------------||
    ----------------------|----------------------|---------------||
    --4----6----6----6----|--6----6----6----6----|------6--------||
    --2----6----6----6----|--7----7----7----7----|------6--------||
    --0----4----4----4----|--5----5----5----5----|------4--------||
    
    The…
  • Intro: F#M G#M F#M
    
    
    E                     A
     Why are you looking grave?
             E                        F#M    G#M   F#M
     Are you thinking of something to say? 
    E                    F#M
     Why are you sitting there?…
  • CAPO 9th Fret!! 
    
    Asus2: 002230 
     D: 000232 
    Cadd9: 03203(3) 
     G/f#: 20003(3) 
      Em7: 02203(3) 
        G: 32003(3) 
     G: 30003(3) 
    
    The () means you can play that string, but don't have to. 
    
    VERSE 1 
    
    Asus2…
Наверх