Аккорды «Moby»

Moby
Моби (англ. Moby, настоящее имя Ричард Мелвилл Холл / англ. Richard Melville Hall, родился 11 сентября 1965 года в Гарлеме, район Нью-Йорка) — американский музыкант, а также название его группы. Работает в различных жанрах — от электронной музыки до попа, рока и панка. Псевдоним позаимствован из названия произведения «Моби Дик», автор которого, Герман Мелвилл, приходится музыканту родственником. Ричард родился в Нью-Йорке, но рос в Дэриене, штат Коннектикут. Когда ему было два года, его отец… Читать полностью... Моби (англ. Moby, настоящее имя Ричард Мелвилл Холл / англ. Richard Melville Hall, родился 11 сентября 1965 года в Гарлеме, район Нью-Йорка) — американский музыкант, а также название его группы. Работает в различных жанрах — от электронной музыки до попа, рока и панка. Псевдоним позаимствован из названия произведения «Моби Дик», автор которого, Герман Мелвилл, приходится музыканту родственником. Ричард родился в Нью-Йорке, но рос в Дэриене, штат Коннектикут. Когда ему было два года, его отец погиб в автомобильной аварии, и в дальнейшем мальчик воспитывался матерью, довольно прогрессивной женщиной, поощрявшей творческие наклонности сына. В девять лет мальчик начинает брать уроки игры на фортепьяно и гитаре. Подростком он играл на гитаре в различных командах, начиная с панк-группы Vatican Commandos и заканчивая анархическим коллективом Flipper и с достаточно известной в свое время командой ULTRA VIVID SCENE. В конце 1980-х гг. Ричард уехал в Нью-Йорк — один из центров нарождающейся хаус-культуры — и начал осваивать ди-джейское ремесло в местных клубах, а также создавать свой собственный электронный материал. В 1990-91 им было выпущено несколько дебютных синглов на независимом лейбле «Instinct». В 1991 году сингл Go с сэмплами из известного телевизионного сериала "Твин Пикс" ("Twin Peaks"), режиссером которого является Дэвид Линч, попал в британский Top-10 и разошелся тиражом более одного миллиона копий. После первого громкого успеха Moby занимался ремикшированием работ ряда известных и неизвестных команд и музыкантов, в числе которых Майкл Джексон, Pet Shop Boys, Брайан Ино, Depeche Mode, Erasure, B-52 и Orbital. Первый полноформатный альбом Ричарда появился в 1992 году. В следующем году он издал сингл «I Feel It / Thousand» который попадает в книгу рекордов Гинесса как самый быстрый трек в истории музыки и заключил контракт с Mute Records, где вышел его очередной релиз «Ambient», в котором были собраны материалы за 1988-91 гг. На диске «Everything Is Wrong» (1995) Ричард заявил о себе как о действительно оригинальном мастере, создавшим неповторимый гибрид из различных стилей и направлений музыки от брейкбита до псевдоиндустриального трэша, эмбиент-транса и дэнс-попа. Этому альбому популярный музыкальный журнал Spin присуждает звание «Альбом года». Следующий альбом «Animal Rights» (1996) представлял собой триптих, составленный из индустриального панка, speedcore и душераздирающих инструментальных композиций. Представив нечто среднее между Nine Inch Nails и Smashing Pumpkins, можно понять, что такое «Animal Rights» с его псевдоиндустриальными гитарами, эмибентными текстурами, упрятанными далеко на заднем плане, и тонким, специфическим вокалом самого Moby. Сам автор гордится проделанной работой, однако альбом продается очень плохо. На фоне этого у Ричарда развивается депрессия. Вдобавок ко всему этому от рака легких умирает его мать. В 1997 году, под псевдонимом Voodoo Child, Моби выпустил альбом «The End Of Everything», а также «I Like To Score» в котором Моби собирает написанные им ремиксы собственных песен, использованных в качестве саундтреков к кинофильмам. К счастью, этот альбом продается лучше, чем «Animal Rights», что придает силы музыканту для написания его следующего альбома. Огромный успех музыканту принес следующий альбом - «Play» (май 1999). По своей сути, это достаточно медленная работа, сочетающая в себе downtempo бит и прекрасно отработанную мелодику. Первые два трека альбома «Honey» и «Find Me Baby» сделаны весьма хитроумно и не без издевки. Здесь Moby соединил короткие госпел и блюзовые вокальные сэмплы с брэйкбитовым техно, что позволяет сравнивать эти композиции с творчеством Fatboy Slim и Chemical Brothers конца 1990-х гг. «Bodyrock» — еще один брейкбитовый гимн, однако уже сдобренный старым добрым олд-скул-рэпом вместо блюза. Тонкая линия пианино и рваные скрипичные сэмплы в «Porcelain» звучат достаточно многозначительно, а «South Side» — поп-композиция альбома — интегрирует вокал, который не может нормально восприниматься без трансцендентного хоруса, полностью его трансформирующего. Альбом «Play» разошелся тиражом более 10 миллионов копий. В 26 странах он стал платиновым, три года подряд номинировался на премию Грэмми, а также получил несколько наград каналов MTV и VH1. В 2002 году состоялся релиз восьмого альбома Моби - «18», в записи которого участвовал не только сам Моби, но и Шинед О'Коннор, Angie Stone, MC Lite, Azure Ray. В 2005 году Моби выпускает новый альбом «Hotel», в котором он сочетает эмбиент и поп-рок. Основным полюбившимся широкой публике треком с этого альбома стал «Lift me up», который Моби включил на диск в самый последний момент, из-за своего сна, где он увидел исполнение этой песни вживую. Следующей его работой становится альбом «Last Night» (2008). На этом диске сочетаются танцевальные ритмы дискотек 80-х, техно, а также хип-хоп-песня «Alice». В этом же 2008 году музыкант запускает свой проект MobyGratis, суть которого заключается в том, что любой независимый кинематографист может воспользоваться треками Моби для саундтрека к своему фильму. Выпуск нового студийного альбома « Wait for Me» состоялся в июне 2009 года; уже в апреле на сайте Моби был доступен для скачивания клип к треку «Shot in the Back of the Head», снятый Дэвидом Линчем, после этого Моби выпускает сингл «Pale Horses», а затем время от времени добавляет на свой сайт короткие анимационные видео (блипы) к каждой из своих песен. Этим летом Моби отправляется в очередное турне по Европе и Северной Америке. Также выпускал альбомы, именуясь Voodoo Child, Barracuda, UHF, The Brotherhood, DJ Cake, Lopez и Brainstorm/Mindstorm. Прочее Моби — вегетарианец со стажем (с 1980-х годов). Он — христианин, однако не относится ни к какой религиозной конфессии. Сотрудничал с организацией PETA («Люди за этичное обращение с животными») и MoveOn. Живёт в Нью Йорке (часть города — Манхэттен). Ему принадлежали небольшой ресторан и кафе под названием TeaNY. Дискография Альбомы * The Story So Far (он же Moby) (Instinct 1993) * Ambient (Instinct 1993) * Everything is Wrong (Mute 1995) #21 UK * Animal Rights (Mute 1996) #38 UK * Play (Mute 1999) #1 US, #1 UK * Play: The B Sides (Mute 2000) #24 UK * His Greatest Moments(2000) * 18 (Mute 2002) #4 US, #1 UK * 18 B Sides + DVD (Mute 2003) * Hotel (Mute 2005) #28 US, #8 UK * Last Night (2008) * Wait For Me (2009) * Destroyed (2011) * Innocents (2013) Бонус-диски к лимитированым изданиям * Underwater (к Everything is Wrong) * Little Idiot (к Animal Rights) * hotel.ambient (к Hotel) Альбомы, выпущенные под другими именами * Instinct Dance (Instinct 1991) o Moby/Barracuda/Brainstorm/Voodoo Child * The End of Everything (Mute 1996) o Voodoo Child * Sugar Baby (Trophy 1996) o DJ Cake * Baby Monkey (Mute 2004) o Voodoo Child Сборники * Early Underground (Instinct 1993) * Rare: The Collected B-Sides 1989—1993 (Instinct 1996) * Everything Is Wrong — DJ Mix Album (Mute 1996) * I Like to Score (Mute 1997) * MobySongs: 1993-98 (Elektra 2000) Синглы * 1991 «Go» #10 UK * 1993 «I Feel It / Thousand» #38 UK * 1993 «Move» #21 UK * 1994 «Hymn» #31 UK * 1994 «Feeling So Real» #30 UK * 1995 «Everytime You Touch Me» #28 UK * 1995 «Into the Blue» #34 UK * 1996 «Bring Back My Happiness» (Feb 1996) * 1996 «That’s When I Reach For My Revolver» (26 августа 1996) #50 UK * 1996 «Come On Baby» (4 ноября 1996) * 1997 «James Bond Theme (Moby’s Re-Version)» #8 UK * 1998 «Honey» #33 UK * 1999 «Run On» #33 UK * 1999 «Bodyrock» #38 UK * 1999 «Why Does My Heart Feel So Bad» #16 UK * 2000 «Natural Blues» #11 UK * 2000 «Porcelain» #5 UK * 2000 «South Side» (feat. Gwen Stefani) #14 US * 2000 «Why Does My Heart Feel So Bad / Honey (Remix feat. Kelis)» #17 UK * 2002 «We Are All Made of Stars» (UK) #11 UK * 2002 «Extreme Ways» (UK) #39 UK * 2002 «In This World» (UK) #35 UK * 2003 «Sunday (The Day Before My Birthday)» (UK) * 2003 «Jam For The Ladies» (UK) * 2005 «Lift Me Up» (UK, 28 февраля 2005) #18 UK * 2005 «Raining Again» (Европа, 23 мая 2005; Австралия, 6 июня 2005) #52 Australia * 2005 «Spiders» (Великобритания, 30 мая 2005) #50 UK * 2005 «Beautiful» (Европа, 12 сентября 2005) * 2005 «Dream About Me» (Великобритания, 8 августа 2005) * 2006 «Slipping Away» (Великобритания, 23 января 2006) #53 UK Скрыть...
Популярные аккорды Moby:
алфавиту | просмотрам | случайно
  • Am         Am         Em         Em
    E|-0----------0----------0----------0---------|
    B|-1-------1--1-------1--0-------0--0-------0-|
    G|-2-2---2----2-----2----0-----0----0-----0---|
    D|-2---2------2----------2----------2---2-----|
    A|-0----------0----------2----------2---------|
    E|-----------------------0----------0---------|…
  • intro: B5, Db5
    
    verse 1: B5, Db5
    
    see myself in the pouring home
    see the light come over now
    see myself in the pouring rain
    i watch hope come over me
    
    chorus 1: E, Abm, A
    
    here we are now, going to the east side
    i pick up…
  • c D
    Green sally up
    
    And...
    C D
    Lift and squat
    
    Gotta.... (x4)
    
    
    F
    Green sally up
    
    And...
    G
    Lift and squat
    
    Gotta... (x1)
    
    N.C.
    Old miss...
    
    Left...
    
    {REPEAT}
    
  • Вступление: 2X
    Time: 1/8
    
         Am                  Em                    G
    E|--------------------|-------------------|--------------------|
    B|-1--------1--1----1-|-0----0--0-------0-|-0----0--0--------0-|
    G|-2------2----2----2-|-0----0--0-----0---|-0----0--0------0---|
    D|-2----2------2----2-|-2----2--2---2-----|-0----0--0----0-----|
    A|-0--0--------0--0---|-------------------|--------------------|
    E|--------------------|-0--0----0-0-------|-3--3----3--3-------|…
  • Bm
    Extreme ways are back again
    Extreme places I didn't know
    
    A
    I broke everything new again
    Everything that I'd owned
    
    Em
    I threw it out the windows, came along
    Extreme ways I know apart
    
    Bm
    The colors of my sea
    Perfect…
  • A                     Em       A Em
    In my dreams im dying all the time
       A                     Em     A Em
    As i wake its kaleidoscopic mind
       A                     Em
    I never meant to hurt you
       A                Em  A
    I…
  • A#
    oh lordy, trouble so hard
    G#
    oh lordy, trouble so hard,
    C#
    don't nobody know my troubles but God
    D#
    don't nobody know my troubles but God
    
    A#
    went down the hill, the other day
    A#
    my soul got happy and stayed all day
    F#
    went…
  • E A D
    E5:  0 2 2
    F#5: 2 4 4
    G5:  3 5 5
    A5:  5 7 7
    B5:  7 9 9
    D5: 10 12 12
    C5:  8 10 10
    E5*:12 14 14
    
    Tempo: 65 (quite slow. Fast in double speed)
    65 crochets per minute (for those who know about musical notation)
    
    Intro…
  • Intro: Bm : Bm : A : G
    
    
    Bm A G
    e|-----0-2----0--------0-------------:
    b|--0-------0---0----3---0---/3---/3-:
    G|-----------------2-------0----0----:
    D|-----------------------------------:
    A|-----------------------------------:
    E|-----------------------------------:
    
    Bm…
  • [INTRO]
    
    Em
    E|-----------------------------------------------|
    B|-----------------------------------------------|
    G|---------------0--------------------0----------|
    D|------2-----------2--------2-----------2-------|
    A|---------2-----------2--------2-----------2----|
    E|-0----------0-----------0--------0-----------0-|
    
    Em
    E|-----------------------------------------------|
    B|-----------------------------------------------|
    G|-0-------------0-----------0-----------0-------|
    D|------2-----------2-----------2-----------2----|
    A|---------2-----------2-----------2-----------2-|
    E|------------0-----------0-----------0----------|
    
    C
    E|-----------------------------------------------|
    B|------1--------------------1-------------------|
    G|---------0--------0-----------0--------0-------|
    D|------------0--------0-----------0--------0----|
    A|-3-------------3--------3-----------3--------0-|
    E|-----------------------------------------------|
    
    G
    E|-----------------------------------------------|
    B|---------------0-----------0--3-----------0----|
    G|------------------0--------------0-------------|
    D|------0--------------0--------------0----------|
    A|---------2-------------------------------------|
    E|-3----------3-----------3--------------3-----3-|
    
    Em
    E|----------------------------------------------|
    B|----------------------------------------------|
    G|---------------0-------------0----------------|
    D|------2-----------2-------------2--------2----|
    A|---------2-----------2-------------2--------2-|
    E|-0----------0-----------0-------------0-------|
    
    Em
    E|------------------------------------------------|
    B|------------------------------------------------|
    G|----0-----------0-----------0-------------------|
    D|-------2-----------2-----------2--------2-------|
    A|----------2-----------2-----------2--------2----|
    E|-0-----------0-----------0-----------0--------0-|
    
    C
    E|------------------------------------------------|
    B|----------------1-----------1-------------------|
    G|-------0-----------0-----------0--------0-------|
    D|----------0-----------0-----------0--------0----|
    A|-3-----------3-----------3-----------3--------0-|
    E|------------------------------------------------|
    
    G
    E|-----------------------------------------------|
    B|---------------0--------------------0----------|
    G|------------------0-----------------------0----|
    D|------0--------------0-----0-------------------|
    A|---------2--------------------2--------------0-|
    E|-3----------3-----------3--------3-----3-------|
    
    Am
    E|-----------------------------------------------|
    B|---------------1--------------------1----------|
    G|------2-----------2--------2-----------2-------|
    D|---------2-----------2--------2-----------2----|
    A|-0----------0-----------0--------0-----------0-|
    E|-----------------------------------------------|
    
    Em
    E|--------------------------------------------|
    B|--------------------------------------------|
    G|---------------0--------------------0-------|
    D|------2-----------2--------2-----------2----|
    A|---------2-----------2--------2-----------2-|
    E|-0----------0-----------0--------0----------|
    
    Em
    E|---------------------------------------------------|
    B|---------------------------------------------------|
    G|-------------0--------------------0----------------|
    D|----2-----------2--------2-----------2--------2----|
    A|-------2-----------2--------2-----------2--------2-|
    E|-0--------0-----------0--------0-----------0-------|
    
    2x
    D
    E|---------------2--------------------2----------|
    B|------3-----------3--------3-----------3-------|
    G|---------2-----------2--------2-----------2----|
    D|-0----------0-----------0--------0-----------0-|
    A|-----------------------------------------------|
    E|-----------------------------------------------|
    
    Am
    E|-----------------------------------------------|
    B|---------------1--------------------1----------|
    G|------2-----------2--------2-----------2-------|
    D|---------2-----------2--------2-----------2----|
    A|-0----------0-----------0--------0-----------0-|
    E|-----------------------------------------------|
    
    Em
    E|----------------------------------------------|
    B|----------------------------------------------|
    G|---------------0----------------------0-------|
    D|------2-----------2----------2-----------2----|
    A|---------2-----------2----------2-----------2-|
    E|-0----------0-----------0----------0----------|
    
    Em
    E|----------------------------------------------|
    B|----------------------------------------------|
    G|---------------0-------------------0----------|
    D|-------2----------2--------2----------2-------|
    A|----------2----------2--------2----------2----|
    E|-0-----------0----------0--------0----------0-|
    
    F
    E|--------------------------------------------|
    B|--------------------------------------------|
    G|---------------1--------------------1-------|
    D|------3-----------3--------3-----------3----|
    A|---------3-----------3--------3-----------3-|
    E|-1----------1-----------1--------1----------|
    
    F
    E|---------------------------------------------------|
    B|---------------------------------------------------|
    G|-------------1--------------------1----------------|
    D|----3-----------3--------3-----------3--------3----|
    A|-------3-----------3--------3-----------3--------3-|
    E|-1--------1-----------1--------1-----------1-------|
    
    [CORE]…
  • INTRO: CLEAN
    --------------------------------------------------------
    --------------------------------------------------------
    --------------------------------------------------------
    ----2-2--2---2-2-----2-2---2-----2-2--------------------
    ---2----2-----------2-----2-----------------------------
    --0-------0-------0-----------0-------0-----------------
    
    Reapeat…
  • Em D Dm Am
    E||-----------------------|
    B||-----------------1-----|
    G||--0---2----2-----2-----|
    D||--1---0----0-----2-----|
    A||--1---0----0-----0-----|
    E||--0---2----1-----------|
    
    
    The picking pattern for each chord goes…
  • E G#m
    Lordy don't leave me
    E G#m
    All by myself
    E G#m
    Lordy don't leave me
    E G#m
    All by myself
    E G#m
    Lordy don't leave me
    E G#m
    All by myself
    A G#m
    Lordy don't leave me
    A G#m
    All by myself
    
    --------
    
    C#m E
    First chance, come…
  • Am Dm
    Oh my baby, don't cry
    C G
    Oh my babe, just say goodbye
    Am Dm
    Oh now baby, don't cry
    C G
    Oh my babe, at least we tried
    
    
    
    F C G
    At least we tried to make it
    F C G
    But in these days i'm so confused
    F C G
    Oh my love,…
  • Intro
    
    E||---------------------|------------------|---------------------|
    B||---------------------|------------------|---------------------|
    G||---------------------|------------------|---------------------|
    D||---7h9--7h9--7h9-7h9-|---------7--------|---------------------|
    A||---------------------|----7-9-----------|---------------------|
    E||---------------------|------------------|---------------------|
    
    Solo
    
    E||---------------------|------------------|---------------------|
    B||-------17----17------|------15-----15---|--------14-----14----|
    G||--9s16----16----16---|---14----14----14-|--12s14-----14----14-|
    D||---------------------|------------------|---------------------|
    A||---------------------|------------------|---------------------|
    E||---------------------|------------------|---------------------|
    
    
    
    
    
    B5
    Never…
  • Bm
    One of these mornings
    A
    Won't be very long
    G
    You will look for me
    Bm
    And I'll be gone
    
    
    D
    And I'll be gone
    F#m
    And I'll be gone
    C
    And I'll be gone
    G
    And I'll be gone
    
  • E|----------------------------------------------------|
    B|----------------------------------------------------|
    G|----------------------------------------------------|
    D|------7-----------9-----------7-----------7---------|
    A|7--5-----5--7--5-----5--7--5-----5--7--4-----5------|
    D|9-----------7-----------5-----------4---------------|…
  • Intro: Bm D D Bm D D 
    
    Bm                   D
      Some things fall apart
    Bm                      D
      Some things make you hold
    Bm                      D
      Some things that you find
    Bm                     D
      Are beyond…
  • D A
    Babe, ooh dream about me
    G D
    Lie, on the phone to me
    D A
    Tell me no truth, if it is bad
    G
    There's enough in my life
    D
    To make me so sad
    
    Just dream about-
    Em G D
    Colour fills our lives
    
    Just dream about-
    Em G D
    Someone…
  • STANDARD TUNING
    
    
    Riff 1: 
    e---------------------------------------------------------------|
    B---------------------------------------------------------------|
    G---------------------------------------------------------------|
    D---------------------------------------------------------------|
    A---------------------------------------------------------------|
    E-2-222-2--0-0-0-0--3-333-3—-0-0-0-0--2-222-2—-0-0-0-0--3-333-3-|
    |…
  • e--------------------------------------------------------------------------
    B-3/5--3/5-3/5-5--5-5⁄3-3-5⁄3-3-3⁄1-3⁄1-1------------------3/5-5--3-3/5-5--
    G-----------------------------------------5-5⁄2-2-2-2/5-5------------------
    
    e--------------------------------------------------------------------------
    B-5-5-3-5-5/10-10-8/10-10-10-10-10-10—8/10-8/10—10/13-13-13⁄10--10-10-10-10
    G--------------------------------------------------------------------------
    
    e-10/12-12-10/12-12-12-12-12-12-15-15/17-17—-10-10-—10-12-12⁄8-8-8—-8-8⁄5-5
    B--------------------------------------------------------------------------
    G--------------------------------------------------------------------------
    
    e-5-3-5-5---5-5-3-3--------------------------------------------------------
    B-------------------3/5-5—3/5-5---5-5⁄3-3--3/5-5⁄3-3-3-3-3-1/5-5—5⁄1-1—1/3-
    G--------------------------------------------------------------------------
    
    e--------------------------------------------------------------------------
    B---------------3/5-5---5-3/5-5--5-5-3-5—-3/10--10-10-10---8-8---13⁄10--10-
    G-7⁄2-2-2-2-2-2------------------------------------------------------------
    
    e---------------------------------------------------------------10/12-12---
    B-10-10-8-10-10/13---13/15-15-15--15-15⁄13—-10/13—-15⁄13—-10/13------------
    G--------------------------------------------------------------------------
    
    e-12-12--10-10/12--12-12—10/12---15-17-17----15/17-17/19-19-19--19-17-21-21
    B--------------------------------------------------------------------------
    G--------------------------------------------------------------------------
    
    e-17⁄15-15/17-17---17-15-13--17-15-10---8-8/10-10⁄8-8⁄5-5—5/8-8------------
    B---------------------------------------------------------------8⁄5--------
    G--------------------------------------------------------------------------
    
    e--------------------------------------------------------------------------
    B-3-5⁄3-⁄1---------------3/5-5-⁄1---3/5-3-5-----8-10-8-5-3-⁄1---0-1---1/6-6
    G-----------2/5-5-⁄2-------------------------------------------------------
    
    e--------------------------------------------------------------------------
    B-6-6/8-6-5----5/13-13-13----8/10-10⁄8—3/5-5-3-5--5-5⁄3-5/10-10-8-10-------
    G--------------------------------------------------------------------------
    
    e--------8-5-8-5---5-8----8/13-13--12--13-13⁄12-8---10/12-12-12⁄10-10⁄8----
    B-8-10-10---------8--------------------------------------------------------
    G--------------------------------------------------------------------------
    
    e-------------------------------------------------3------------------------
    B-8⁄5-5—-8⁄5-3/5-5—8⁄5-3/5-5--10-8⁄5-3/5-3-----3/5---5⁄3-3/5-5⁄1-----------
    G----------------------------------------------------------------2/5-5-5⁄2-
    
    e--------------------------------------------------------------------------
    B-------------------------------------10-8/10-10⁄8-8---8-8-8/10-10-8/10----
    G-2-2-2-2-2/5-5/7-7/9-9-9⁄7-9---7-9-7--------------------------------------
    
    e-------------------------10/12-12-15-15-15-15-15-15----15-19--15-19-------
    B-10/13-13-13-13-13-13-----------------------------------------------------
    G--------------------------------------------------------------------------
    
    e-19-19—--17/19-19⁄15-15---15-15-17-20-20---17-17---13-13--13-20-----------
    B---------------------------------------------------------------17-17------
    G--------------------------------------------------------------------------
    
    e-20----------------------------12--------12---12-12⁄10---19---17-15--15/17
    B----17-17⁄15-15/17-17⁄15-15⁄13-----15⁄13----------------------------------
    G--------------------------------------------------------------------------
    
    e-12/13-12—12/13-10---10/12-10/12-10--8—8/10-10--8-5⁄3--3-5-8--5-3---------
    B--------------------------------------------------------------------------
    G--------------------------------------------------------------------------
    
    e--------------------------------------------------------------------------
    B-3/5-5---8-3/5-3----------------------------------------------------------
    G--------------------------------------------------------------------------…
  • Verse------
    
    A (xO2220)
    Come on baby, Come on girl (x2)
    
    F (133211)
    I love you baby, I love you now (x2)
    
    Chorus------
    
    C (x32010)
    Look at us we're beautiful
    G (3x0003)
    All the people push and pull but
    D (xx0232)
    Let's just…
  • Main Riff
    
    E:-----------------
    B:-----------------
    G:-----------------
    D:-----------------
    A:-----------------
    E:-0h2-2-x-x-x-x---
    
    
    Guitar Fill (comes in every now-and-then. with wah)
    
    E:-6~~~~~-----
    B:------------
    G:------------
    D:------------
    A:------------
    E:------------
    
    
    Chorus…
  • The piano melody of this song goes:
    
    CHORD MELODY AFTER CHORD (Just the notes)
    
    C G C D E
    Bm F# B C# D
    G E G A B
    Em B E F# G
    D A D E F#
    C G C D E
    
    Every chord is followed by its 5th in the lower octave,
    then the key itself,…
  • Chorus:
    
    G-------------------------------------------------
    D----------------------0-0-2-2--2--2--2-2--2-2-2-2
    A-------------------------------------------------
    E-2--2--2--2-2--2-2-2-----------------------------
    
    Verse:
    
    G---------------------------------
    D---------------------------------
    A---------------------------------
    E-2-2--2-2--2-2--2-2--2-2-2-2-----
    
    G---------------------------------
    D---------------------------------
    A---------------------------------
    E--0-0--0-0--0-0--0-0--0-0-0-0----
    
    G---------------------------------
    D---------------------------------
    A---------------------------------
    E-2-2--2-2--2-2--2-2--2-3-2-0-----
    
    G---------------------------------
    D---------------------------------
    A---------------------------------
    E-0-0--0-0--0-0--0-0--0-0-0-0-----
    
    G---------------------------------
    D---------------------------------
    A-2-2--2-2--2-2--2-2--2-2-2-2-----
    E---------------------------------
    
    G---------------------------------
    D---------------------------------
    A-5-5--5-5--5-5--5-5--5-7-5-2-----
    E---------------------------------
    
    G---------------------------------
    D---------------------------------
    A-2-2--2-2--2-2--2-2--2-2-2-2-----
    E---------------------------------
    
    G---------------------------------
    D---------------------------------
    A-5-5--5-5--5-5--5-5-5-5----------
    E---------------------------------
    
    Bridge
    
    G---------------------------------
    D-2-2-0-0--0--0--0-0--0-0-0-2-----
    A---------------------------------
    E---------------------------------
    
    G---------------------------------
    D-2--2--2--2-2--2-4-2-0-----------
    A---------------------------------
    E---------------------------------
    
    G---------------------------------
    D-0--0--0--0-0--0-0-0-0-----------
    A---------------------------------
    E---------------------------------
    
    G---------------------------------
    D---------------------------------
    A-2--2--2--2-2--2-2-2-5-----------
    E---------------------------------
    
    G---------------------------------
    D---------------------------------
    A-5--5--5--5-5--5-7-5-2-----------
    E---------------------------------
    
    G---------------------------------
    D---------------------------------
    A-2--2--2--2-2-2---5---5---2-2-0-0
    E---------------------------------…
  • Capo 2nd Fret
    
    Intro: C--Am--G--F
    
    Verse 1:
    
    C
    So we sleep in beds
    Am
    We never make
    
    Holding close to love
    G
    Love should fade
    F
    Holding on to this is the best thing we'll ever do
    
    C Am
    The morning sun is sweet and soft on…
  • Bm           A         G
    All that we needed was right
    Bm             A          G
    А threshold is breaking tonight
    
    D                            A
    Open to everything happy and sad…
  • There is only one riff the whole song.
    
    G---------------------------------------
    D-5555555555----------------------------
    A-------------00------------------------
    E---------------------------------------
    
Наверх