Аккорды Natali Song - Я снова жду

Добавлено: @romashka
Дата добавления: 22 Апреля 2021г.
Рейтинг:
0.0
Просмотров: 24
Транспонировать - +
Вступление Ebm B Abm Bb x4

e|---------6---|-------|---------7---|-------|---------------|-------7-------|---------|-------|
B|---7-6-7---7-|-6-----|---7-6-7---7-|-6-----|-------9-7-6-7-|---8-----9-7-9-|-6-------|-6-7-9-|
G|-------------|---8---|-------------|---8---|---------------|-9---9---------|-------7-|-------|
D|-8-----------|-----8-|-9-----------|-----9-|-6-9-6---------|---------------|---8-8---|-------|
A|-------------|-------|-------------|-------|---------------|---------------|---------|-------|
E|-------------|-------|-------------|-------|---------------|---------------|---------|-------|

        Ebm
Листьев павшую листву
       B
Белым снегом замели,
    Abm
И осталось ждать весну,
     Bb
Прилетели снегири.
         Ebm
Здесь не будет уж тепла,
        B
Холод, стуж идет в наш мир,
            Abm
Здравствуй, белая зима,
     Bb
На меня не злись, прости.

             Ebm
  А я снова жду тепло тех рук,
             B
  А я снова жду его слова,
             Abm
  А я каждый вечер вновь одна
            Bb
  Скучаю и плачу, знаю, зря.
              Ebm
  А он и не вспомнит обо мне,
             B
  А может когда-нибудь во сне
               Abm
  Я тенью мелькну забытых слов,
            Bb
  А может жива еще любовь.

Проигрыш Ebm B Abm Bb x2

e|---------6---|-------|---------7---|-------|---------------|-------7-------|---------|-------|
B|---7-6-7---7-|-6-----|---7-6-7---7-|-6-----|-------9-7-6-7-|---8-----9-7-9-|-6-------|-6-7-9-|
G|-------------|---8---|-------------|---8---|---------------|-9---9---------|-------7-|-------|
D|-8-----------|-----8-|-9-----------|-----9-|-6-9-6---------|---------------|---8-8---|-------|
A|-------------|-------|-------------|-------|---------------|---------------|---------|-------|
E|-------------|-------|-------------|-------|---------------|---------------|---------|-------|
 
      Ebm
Мир окрашен в белый цвет
       B
В этом холоде оков,
   Abm
Я еще сильней хочу
       Bb
Повстречать свою любовь.
    Ebm
Заметает снегопад
      B
Прошлого тепла следы,
     Abm
Не узнать тебе, зима,
      Bb
Как любить меня могли.

             Ebm
  А я снова жду тепло тех рук,
             B
  А я снова жду его слова,
             Abm
  А я каждый вечер вновь одна
            Bb
  Скучаю и плачу, знаю, зря.
              Ebm
  А он и не вспомнит обо мне,
             B
  А может когда-нибудь во сне
               Abm
  Я тенью мелькну забытых слов,
            Bb
  А может жива еще любовь.

             Ebm
  А я снова жду тепло тех рук,
             B
  А я снова жду его слова,
             Abm
  А я каждый вечер вновь одна
            Bb
  Скучаю и плачу, знаю, зря.
              Ebm
  А он и не вспомнит обо мне,
             B
  А может когда-нибудь во сне
               Abm
  Я тенью мелькну забытых слов,
            Bb
  А может жива еще любовь.

            Ebm
  А я снова жду (Модуляция на тон вверх)
 
             Fm
  А я снова жду тепло тех рук,
             C#
  А я снова жду его слова,
             A#m
  А я каждый вечер вновь одна
            C
  Скучаю и плачу, знаю, зря.
              Fm
  А он и не вспомнит обо мне,
             C#
  А может когда-нибудь во сне
               A#m
  Я тенью мелькну забытых слов,
            C        Fm
  А может жива еще любовь.
Наверх