Аккорды найтивыход - Варвара

Добавлено: @romashka
Дата добавления: 27 Августа 2021г.
Рейтинг:
0.0
Просмотров: 47
Транспонировать - +
[Интро]х2

-----------3-----------------------2----------------------0-------------------- 

------------------------------------------------------------------------------- 

-------0-----------------------2----------------------------------------------- 

---2-----------------------0--------------------------2------------------------ 

--------------------------------------------------3---------------------------- 

------------------------------------------------------------------------------- 

 

----------------------------------------------------------------- 

----------------------------------------------------------------- 

-------2-----2-----2-----2--------------------------------------- 

---0-----0-----0-----0------------------------------------------- 

----------------------------------------------------------------- 

----------------------------------------------------------------- 

 

G(III) 
Полумёртвые руки в порезах и ссадинах 
D 
Видно, Варвара скучала по маме 
G 
Любила такие же песни 
A 
И плакать в углу по ночам 

G(III) 
Поначалу всё сносно и даже приятно 
D 
Но лезвие глубже под кожу влезает 
G 
Варвара терпела и плакала просто 
A 
Смотря свой любимый Дом-2  
 
G(III) 
Этот парень так сильно врезается в память 
D 
Что мысли о нём — уж привычное дело 
G 
Несчастное тело бедняжки Варвары 
A 
Хотело простого тепла 

G(III) 
Ну а руки в порезах уже онемели 
D 
От пролитой крови на кофту и бёдра 
G 
Зарядка села и плеер без песен 
A 
Про себя она пела песни БИ-2 

G(III) 
Я едва не заметил как ты очутилась 
D 
Под боком в самый нужный момент 
G 
Эта музыка снова нас вместе скрепила 
A 
Прощая нам все сентименты 

G(III) 
Эту боль никогда не поймут твои близкие 
D 
Разве что снова плечами пожмут 
G 
И дома уж нету уюта 
A 
И в ванной комнате на полу труп 

G(III) 
Только помни, Варвара, ты больше не встретишь 
D 
Огни фонарей и красивые виды 
G 
И пусть даже виды на место в тени 
A 
Где вы всё время были вместе 

G(III) 
В этой комнате только запах железа 
D 
И труп на полу, весь в слезах и крови 
G 
Только помни, Варвара, мгновения 
A 
Нашей чистой и светлой любви

На аккорде G глушим 1-ю струну.
Наверх