Аккорды «Nerf Herder»

Nerf Herder
Nerf Herder - поп-панк команда из Санта-Барбары, Калифорния. Собрана в 1994 году Пэрри Гриппом (вокал, гитара), Чарли Дэннисом (басс) и Стивом Шэрлоком (ударные). Они величают свою забавную музыку как "ботанский рок". Их наиболее известной и популярной песней является тема к телесериалу "Buffy the Vampire Slayer". Чарли ушёл с группы после релиза дебютного альбома и был заменен Питом Ньюбари и гитаристом Дэйвом Елричем. Перебывание в группе Ньюбари было недолгим и на его место пришел Джастин Фишэр.… Читать полностью... Nerf Herder - поп-панк команда из Санта-Барбары, Калифорния. Собрана в 1994 году Пэрри Гриппом (вокал, гитара), Чарли Дэннисом (басс) и Стивом Шэрлоком (ударные). Они величают свою забавную музыку как "ботанский рок". Их наиболее известной и популярной песней является тема к телесериалу "Buffy the Vampire Slayer". Чарли ушёл с группы после релиза дебютного альбома и был заменен Питом Ньюбари и гитаристом Дэйвом Елричем. Перебывание в группе Ньюбари было недолгим и на его место пришел Джастин Фишэр. В 2003 году после окончания тура American Cheese в то время как Бэн Прингл (The Rentals) подменил Фишэра (который ушел в свой собственный проект Psoma), команда была расформирована. Позже в 2005, Nerf Herder сделала своим поклонникам сюрприз, вернувшись на сцену своим оригинальным составом. Дискография: * Nerf Herder - 1996 * How To Meet Girls - 2000 * High Voltage Christmas Rock - 2000 * American Cheese - 2002 * My [EP] - 2003 * IV - 2008 Состав: Пэрри Грипп (вокал, гитара), Чарли Дэннис (бас), Стив Шэрлок (ударные), Линус (гитара, клавишные) Скрыть...
Популярные аккорды Nerf Herder:
алфавиту | просмотрам | случайно
  • ------------------------------------------------------------------------------|
    ------------------------------------------------------------------------------|
    ------------------------------------------------------------------------------|
    -------------4-5--------------4-----------------------------------------------|
    -7---------------5----------7---5---------------------------------------------|
    ------------------------------------------------------------------------------|
    
    
    ------------------------------------------------------------------------------|
    ------------------------------------------------------------------------------|
    ------------------------------------------------------------------------------|
    ------------4455--------------44----------------------------------------------|
    -77777777777----55555555555577--555555555555----------------------------------|
    ------------------------------------------------------------------------------|
    
    
    ------------------------------------------------------------------------------|
    ------------------------------------------------------------------------------|
    ------------------------------------------------------------------------------|
    -7-----------7-9-7--5---------4-----------------------------------------------|
    ------------------------------------------------------------------------------|
    ------------------------------------------------------------------------------|
    
    
    -777777777777-10-12-777777777777-10-12-555555555555-8-12----------------------|
    ------------------------------------------------------------------------------|
    ------------------------------------------------------------------------------|
    ------------------------------------------------------------------------------|
    ------------------------------------------------------------------------------|
    ------------------------------------------------------------------------------|
    
    
    -555555555555666666666666-7-7-0---------------------------------------------|
    --------------------------------0---------------------------------------------|
    --------------------------------0---------------------------------------------|
    --------------------------------2---------------------------------------------|
    --------------------------------2---------------------------------------------|
    --------------------------------0---------------------------------------------|…
  • Tuning: Standard (E A D G B E)
    
    Intro
    
    E|-----------------------------------------------------------||
    B|-----------------------------------------------------------||
    G|-----------1111111111111111--99999999--88888888-66666666---||
    D|--99999999-1111111111111111--99999999--88888888-66666666---||
    A|--99999999--9-9-9-9-9-9-9-9--77777777--66666666-44444444---||
    E|--77777777-------------------------------------------------||
    
    Verses…
  • Intro:
    e:-------------------------------------------
    B:-------------------------------------------
    G:---6s7-6-4-6-----------6s7-6-4-6-----------
    D:--0---------7-5-7-4---------------7-5-7-4--
    A:-------------------------------------------
    E:-------------------------------------------
    
    
    Chords:
    -All…
  • Intro and Chorus  
    e|--------------------------------------------------------------|
    B|--------------------------------------------------------------|
    G|-999999--------999999--------999999--------555555-------------|
    D|-999999-555555-999999-555555-999999-555555-555555-777777------|
    A|-777777-555555-777777-555555-777777-555555-333333-777777------|
    E|--------333333--------333333--------333333--------555555------|
    (you…
  • Intro:    A5 E5 F#5 D5 (strum once) 
    A5 E5 F#5 D5 
    
    Verses
    
    A5                              E5 
    Electronic drums and synthesisers 
    F#5                         D5 
    And killer haircuts and black eyeliner 
    A5…
  • Intro:
    -5-3---5-3---5-3-2-3-2-0-2-------------------| (repeat and end on the 3rd fret)
    -----3-----3---------------------------------|
    ---------------------------------------------|
    ---------------------------------------------|
    ---------------------------------------------|
    ---------------------------------------------|
    
    verses:
    ---------------------------------------------|
    ---------------------------------------------|
    ---------------------------------------------|
    ---------------------------------------------|
    ------5--------------------------------------|
    ------3--------------------------------------|…
  • Intro
    
    E------------------------------------------------------------
    B------------------------------------------------------------
    G------------------------------------------------------------
    D----7-7----2-2-2-2-2-2-2-2------7-7-----2-2-2-2-2-2-2-2-----
    A----7-7----2-2-2-2-2-2-2-2------7-7-----2-2-2-2-2-2-2-2-----
    E----5-5----0-0-0-0-0-0-0-0------5-5-----0-0-0-0-0-0-0-0-----
    
    
    E…
  • Intro and Verses
    
    G-------------------------------------------------------------------
    D-------------------------------------------------------------------
    A--------3-3-3-3-3-3-3-3--------------------------------------------
    E--5--3-------------------3-3-3-3-3-3-3-3--5-5-5-5-5-5-5-5---5--3---
    
    Pre-chorus
    
    G------------------------------------
    D------------------------------------
    A------------------------------------
    E---1----------------3---------------
    
    Chorus
    
    G----------------------------------------------------
    D----------------------------------------------------
    A--3-3-3-3-3-3--------------5-5-5-5-5-5--------------
    E--------------1-1-1-1-1-1---------------3-3-3-3-3-3-
    
    After…
  • Tuning: Standard (E A D G B E)
    
    Intro/Verse
    
    E|-------------------------------------------||
    B|-------------------------------------------||
    G|-------------------------------------------||
    D|---77777777---7-6-7----77777777---7-6-7----||
    A|---77777777------------77777777------------||
    E|---55555555------------55555555------------||
    
    E|-------------------------------------------||
    B|-------------------------------------------||
    G|---------------------------------77777777--||
    D|---77777777---7-6-7----99999999--77777777--||
    A|---77777777------------99999999--55555555--||
    E|---55555555------------77777777------------||
    
    Chorus
    
    E|--------------------------------------------||
    B|--------------------------------------------||
    G|---------------------77777777--99999999-----||
    D|---7777777777777777--77777777--99999999-----||
    A|---7777777777777777--55555555--77777777-----||
    E|---5555555555555555-------------------------||…
  • Intro (with fast drums)
    
    E------------------------------------------
    B------------------------------------------
    G---9-9-9-9-9-9-9-9-9-9-9-9-9-9-9-9-9-9----
    D---9-9-9-9-9-9-9-9-9-9-9-9-9-9-9-9-9-9----
    A---7-7-7-7-7-7-7-7-7-7-7-7-7-7-7-7-7-7----
    E------------------------------------------
    
    Verses
    
    A…
  • Intro
    
    G-------------------------------
    D-------------------------------
    A---3-3-----5-5-----------------
    E-------------------------------
    
    
    Verses
    
    G--------------------------------------------------------------------
    D--------------------------------------------------------------------
    A-------------------5-5-5-5-5-5-5-5--2-2-2-2-2-2-2-2-3-3-3-3-3-3-3-3-
    E--3-3-3-3-3-3-3-3---------------------------------------------------
    
    Chorus
    
    G-------------------------------
    D-------------------------------
    A--3-3-------5-5--2-2-2-2-------
    E-------3-3---------------------…
  • ~ = let ring
    * = staccato (short, sharp note)
    ^ = play one octave up
    h = hammer on
    p = pull off
    >/ = slide up
     = slide down
    (M) = muted until (N)
    
    
    ____________________________________________________________
    
    (tuning: standard)
    
    
    (note:…
  • Verse 
    e|-------------------| 
    B|-------------------| 
    G|--7-----7----------| 
    D|--7--5--7--5-------| 
    A|--5--5--5--5-------| 
    E|-----3-----3-------| 
    
    But i know what i like... 
    e|-------------------------| 
    B|-------------------------|…
  • Riff A: (once)
    A--------------
    E--33333333-3--
    
    ***rest***
    
    Riff A: (once)
    
    ***rest***
    
    Riff A: (once)
    
    ***rest***
    
    Riff B: (twice)
    A-----------33333333--------------------
    E--33333333----------33333333-33333333--
    
    Riff…
  • ~ = let ring
    * = staccato (short, sharp note)
    ^ = play one octave up
    h = hammer on
    p = pull off
    >/ = slide up
     = slide down
    (M) = muted until (N)
    
    
    ____________________________________________________________
    
    (tuning: standard)
    
    (intro)…
  • ~ = let ring
    * = staccato (short, sharp note)
    ^ = play one octave up
    h = hammer on
    p = pull off
    >/ = slide up
     = slide down
    (M) = muted until (N)
    
    
    ____________________________________________________________
    
    (tuning: standard)
    
    
    (intro)
    D…
  • Intro/Verse (Palm muted)
    
    e|----------------|| 
    B|----------------|| 
    G|----------------|| 
    D|--7----5----3---||
    A|--7----5----3---|| 
    E|--5----3----1---|| 
    
    Chorus
    
    e|---------------------------||
    B|---------------------------||
    G|--5---------7--------------||
    D|--5----5----7----7---(3)---||
    A|--3----5----5----7---(3)---||
    E|-------3---------5---(1)---||
    
    Bridge
    
    A5,…
  • E|----------------------------------------------------------------------||
    B|----------------------------------------------------------------------||
    G|--44--33--44-------44--33--44-------44--33--44-------77--44--33---44--||
    D|----------------------------------------------------------------------||
    A|----------------------------------------------------------------------||
    E|----------------------------------------------------------------------||
    
    Chords…
  • Standard Tuning: EADGBe
    
    (Intro)
    
    (Bass Line)
    G----------------------------------------------|
    D----------------------------------------------|
    A------2-3-5--5-5-0-1-2--2-2-2-3----3-2-0------|
    E-3--3------------------------------------3----|
    
    (Guitar…
  • Chords used in song
    
          B5    G5     C5        D5      E5
    E-----------------------------------------
    B-----------------------------------------
    G-----4-------------5--------7--------9---
    D-----4------5------5--------7--------9---
    A-----2------5------3--------5--------7---
    E------------3----------------------------
    
    Intro:…
  • ~ = let ring
    * = staccato (short, sharp note)
    ^ = play one octave up
    h = hammer on
    p = pull off
    >/ = slide up
     = slide down
    (M) = muted until (N)
    
    
    ____________________________________________________________
    
    (tuning: standard)
    
    
    (played…
  • ~ = let ring
    * = staccato (short, sharp note)
    ^ = play one octave up
    h = hammer on
    p = pull off
    >/ = slide up
     = slide down
    (M) = muted until (N)
    
    
    ____________________________________________________________
    
    (tuning: standard)
    
    
    (intro)…
  • E----------------------------------------------------------------------------------
    B----------------------------------------------------------------------------------
    G---5-5-5-5-5-5-5-5-5-5-5-5-5-5-5-5--5-5-5-5--5-5-5-5-5-5-5-5----------------------
    D---5-5-5-5-5-5-5-5-5-5-5-5-5-5-5-5--5-5-5-5--5-5-5-5-5-5-5-5----7-7-7-7-7-7-7-7---
    A---3-3-3-3-3-3-3-3-3-3-3-3-3-3-3-3--2-2-2-2--2-2-2-2-2-2-2-2----7-7-7-7-7-7-7-7---
    E----------------------------------------------------------------5-5-5-5-5-5-5-5---
    
    E-----------------------
    B-----------------------
    G-----------------------
    D---5-5-5-5-5-5-5-5-----
    A---5-5-5-5-5-5-5-5-----
    E---3-3-3-3-3-3-3-3-----
    
    Verse…
  • The only riff is:
    
    e------------------------------------
    B------------------------------------
    G--7-----7-5/7------7-5/7---10-------
    D--7-----7-5/7------7-5/7---10-------
    A--5-----5-3/5------5-3/5---8--------
    E------------------------------------
    
    e------------------------------------
    B------------------------------------
    G--7-----7-5/7------7-5/7------------
    D--7-----7-5/7------7-5/7---5--------
    A--5-----5-3/5------5-3/5---5--------
    E---------------------------3--------…
  • ~ = let ring
    * = staccato (short, sharp note)
    ^ = play one octave up
    h = hammer on
    p = pull off
    >/ = slide up
     = slide down
    (M) = muted until (N)
    
    
    ____________________________________________________________
    
    (tuning: standard)
    
    
    (intro…
  • Intro (Tabbed for guitar)
    
    E:--------------------------------------------------
    B:--------------------------------------------------
    G:--------------------------------------------------
    D:------4---7-7--4--7-------------------------------
    A:--5-5---5----------------------4----7-7--4--7-----
    E:---------------------------5-5---5----------------
    
    D5…
  • Tuning: Standard (E A D G B E)
    
    Intro
    
    ^ Full bend
    
    E|---------------------------------------------------------||
    B|---------------------------------------------------------||
    G|---9--9--9--9--9--9--9--9--9--9--9--9--9--9--9^----------||
    D|---------------------------------------------------------||
    A|---------------------------------------------------------||
    E|---------------------------------------------------------||
    
    Intro…
  • e|---------------------------------------------------------------------------|
    B|---------------------------------------------------------------------------|
    G|-------------------6-------------------------------------6-----------------|
    D|---4---------------6-------------6-----------------------6-----------------|
    A|---6---------------4-------------6-----------------------4-----------------|
    E|---4-----------------------------4-----------------------------------------|…
  • Intro
    
    e|---------||
    B|---------||
    G|---------||
    D|---7-7---||
    A|---7-7---||
    E|---5-5---||
    
    Verse (palm muted)
    
    e|------------------------------------||
    B|------------------------------------||
    G|-----------9------5-------7---9-----||
    D|----7------9------5-------7---9-----||
    A|----7------7------3-------5---7-----||
    E|----5-------------------------------||
    
    Pre-chorus
    
    e|------------------------------------||
    B|------------------------------------||
    G|-------------------7-----5----------||
    D|----3-------7------7-----5----5-----||
    A|----3-------7------5-----3----5-----||
    E|----1-------5-----------------3-----||
    
    Chorus…
  • V1
    
    ------------------------
    ------------------------
    -------2--2--4--4--4--4-
    -0--0-------------------
    
    V2
    
    ------------------------
    ------------------------
    -------2--2--4--2--0----
    -0--0-------------------
    
    CH1
    
    ------------------------------------------------
    ------------------------------------------------
    -------------------------4--4--4--4--0--0--0--0-
    -4--4--4--4--4--4--4--4-------------------------
    
    CH2
    
    ------------------------------------------------
    -2--2--2--2--2--2--2--2-------------------------
    ------------------------------------------------
    -------------------------4--4--4--4--4--4--4--4-
    
    ------------------------------------------------
    ------------------------------------------------
    -4--4--4--4--4--4--4--4--0--0--0--0--2--2--2--2-
    ------------------------------------------------
    
    Bridge
    
    ------------------------------------------------
    -2--2--2--2--2--2--2--2-------------------------
    -------------------------2--2--2--2--2--2--2--2-
    ------------------------------------------------
    
    ------------------------------------------------
    ------------------------------------------------
    -4--4--4--4--4--4--4--4--0--0--4--0--------2--4-
    -------------------------------------4--4-------
    
    V/Ch2
    
    ------------------------------------------------
    -2--2--2-----2--4-------------------------------
    ----------4--------2--2--2-----2--4--4--4--4--2-
    ----------------------------4-------------------
    
    ------------------------------
    ------------------------------
    -4--2--0--0--4--0--------2--4-
    -------------------4--4-------
    
    
    The…
  • Verses
    
    G-------------------------------------------------------
    D-------------------------------------------------------
    A--5-5-5-5-5-x-------------x-x-2-2-2-2-2-x-x------------
    E---------------5-5-5-5-5--------------------3-3-3-3-3--
    
    Chorus
    
    G--------------------------------------------------
    D--------------------------------------------------
    A--2-2-2-2-2-------------5-5-5-5-5-----------------
    E-------------3-3-3-3-3------------5-5-5-5-5-------
    
    G--------------------------------------------------
    D--------------------------------------------------
    A--2-2-2-2-2-------------5-5-5-5-5-----------------
    E-------------3-3-3-3-3------------5-5-5-5-5-------
    
    G--------------------------------------------------
    D--------------------------------------------------
    A--------------------------------------------------
    E---2-----------3--------------5-5-5-5-5-5-5-------
    Have…
  • ~ = let ring
    * = staccato (short, sharp note)
    ^ = play one octave up
    h = hammer on
    p = pull off
    >/ = slide up
     = slide down
    (M) = muted until (N)
    
    
    ____________________________________________________________
    
    (tuning: standard)
    
    
    (bass…
  • Intro & Verse(palm-muted): 
    e|-----------------------|| 
    B|-----------------------||
    G|--5--------------------|| 
    D|--5-----7-----3-----5--|| 
    A|--3-----7-----3-----5--|| 
    E|--------5-----1-----3--|| 
    
    Chorus: 
    e|------------||…
  • Tuning: Standard (E A D G B E)
    
    Intro
    
    E|----------------------------------------||
    B|---12---1212-13-12-13-121212-13131313---||
    G|---12---1212-12-12-12-121212-12121212---||
    D|---12-----------------------------------||
    A|----------------------------------------||
    E|----------------------------------------||
    
    E|----------------------------------------||
    B|--1515--131313--151515-1313-------------||
    G|--1212--121212--121212-1212-------------||
    D|----------------------------------------||
    A|----------------------------------------||
    E|----------------------------------------||
    
    Verses
    
    E|------||
    B|------||
    G|------||
    D|--5*--||
    A|--5*--||
    E|--3*--||
    
    Chorus
    
    E|---------------------------||
    B|---------------------------||
    G|--7----9----7----5--4--5---||
    D|--7----9----7----5--4--5---||
    A|--5----7----5----3--2--3---||
    E|---------------------------||…
  • Standard Tuning
    
    Verse (palm muted)
    e|-------------------------------------------------------------------------|| 
    B|-------------------------------------------------------------------------|| 
    G|----------------------------77777777-55555555----------55555555-77777777-||…
  • Standard Tuning (e B G D A E)
     
    Intro Riff
    e|--------------------------------------------------------||
    B|---------------------------------------555555-----------||
    G|--2222222222--4-55---2222222222--4-55----------555555---||
    D|--------------------------------------------------------||
    A|--------------------------------------------------------||
    E|--------------------------------------------------------||
    
    e|-------------------||
    B|-------------------||
    G|--777777--444444---||
    D|-------------------||
    A|-------------------||
    E|-------------------||
    
    e|----------------------------------------------------------||
    B|---------------------------------------555555--888888--9--||
    G|--2222222222--4-55---2222222222--4-55---------------------||
    D|----------------------------------------------------------||
    A|----------------------------------------------------------||
    E|----------------------------------------------------------||
    
    Verses…
Наверх