Аккорды Нервы - Курим

Добавлено: @romashka
Дата добавления: 03 Мая 2013г.
Рейтинг:
5.0
Просмотров: 1 103
Транспонировать - +
E---------9------------------------9--------------------
H-----7--------7---10-7------7--------7---7hp10--7hp10--
G---7--7-----7--7-----------7--7----7--7----------------

E---------9------------------------7hp9-----------------------------
H-----7--------7---10-7------7---------7---7------7---7hp10--7hp10--
G---7--7-----7--7-----------7--7---------7-------7--7---------------

H5                           A5
Так грустно в трехкомнатной квартире
G5                         F#5
И плоские экраны уже не привыкают
H5                              A5
Самый несчастный в мире - нервы, сигареты
G5                A5
Немного алкоголя бывает

Напротив пластиковых окон
В выброшенном кресле живет простой бродяга
Он пишет свои песни про скандалы в этих окнах
Про килограммы пепла
Сага, но

Припев:

H5                         A5
Мы курим, вдыхая с этой смертью
G5                                F#5
Те горькие минуты, те жалкие причины нашей лжи
Но мы курим, хотим, чтоб было круто
Умирая по минутам
Ведь вместе с этим дымом мы не вдыхаем жизнь

Подъезды, пропитанные дымом
Изысканная мука, не в этом мире проще
И так необходимо оправдывать пороки
Как будто бы так легче
Не очень.. Ну что же?
Что тогда мы можем, если нам так сложно бросить?
И что тогда нам нужно?
Мы вспоминаем Бога, когда нам стало хуже, просим, но

Припев: (2 раза)
Мы курим, вдыхая с этой смертью
Те горькие минуты, те жалкие причины нашей лжи
Но мы курим, хотим, чтоб было круто
Умирая по минутам
Ведь вместе с этим дымом мы не вдыхаем жизнь

Соло проигрыш:
e-----7-5-------------
h--3---------3h0--3h0-
Наверх