Аккорды Несогласие - Настоящая любовь

Добавлено: @romashka
Дата добавления: 23 Февраля 2021г.
Рейтинг:
0.0
Просмотров: 175
Транспонировать - +
Соло:
 
E|--------------10-10-14-14--------------------------|--------------10-10-14-14--------------------------
B|--10-10-12-12-------------14-14-14-14-14-14-14-14--|--10-10-12-12-------------14-14-14-14-14-14-14-14--
G|---------------------------------------------------|---------------------------------------------------
D|---------------------------------------------------|---------------------------------------------------
A|---------------------------------------------------|---------------------------------------------------
E|---------------------------------------------------|---------------------------------------------------


E|--14----------14----------14----------14-----------|--------------10-10-14-14--------------------------
B|-----15-14-12----15-14-12----15-14-12----15-14-12--|--10-10-12-12-------------14-14-14-14-14-14-14-14--
G|---------------------------------------------------|---------------------------------------------------
D|---------------------------------------------------|---------------------------------------------------
A|---------------------------------------------------|---------------------------------------------------
E|---------------------------------------------------|---------------------------------------------------


Проигрыш:  D5 B5 F#5 A5 

Куплет 1:
D             Bm            
Я открою глянцевый журнальчик,
F#            A            
Плюну этим моделям в ебало
D           Bm
Потому что они не знают,
F#          A
Как моё сердечко страдало.

D           Bm
Там на розовых страничках
F#            A
Написано красиво "Я тебя люблю"
D                   Bm                   F#
Я такой ебать, да ну, вы серьёзно, ну пиздец,
             A
Почему, почему, почему.

Припев:
D             Bm
Настоящая любовь это больно,
F#             A
Никогда не бывает довольна
D                Bm                F#
Нет предела ничему, если я тебя люблю
                A                  D Bm  
Если я тебя люблю, если я тебя люблю,
F#       A       
Если я тебя люблю.

Проигрыш:  D5 B5 F#5 A5 

Куплет 2:
D              Bm
Вот какой-то тупой парень
F#                 A
Просит, чтобы я сыграл про любовь на гитаре
D                  Bm
Не успев начать играть уж простыл его и след,
F#                 A
Он пошёл трахать дуру малых лет в туалет

D                  Bm
И потом он будет затирать мне про любовь
F#                A
Настоящую такую ... будоражит кровь.
D                Bm
"Я её пиздец люблю, купил ей уже айфон,
F#              A    
Настоящая любовь, мы не ссоримся вдвоём"

Припев:

D             Bm
Настоящая любовь это больно,
F#             A
Никогда не бывает довольна
D                Bm                F#
Нет предела ничему, если я тебя люблю
                A                  D Bm  
Если я тебя люблю, если я тебя люблю,
F#       A       D Bm
Если я тебя люблю,
F#       A
Если я тебя люблю.

Проигрыш:  D Bm F# A

Куплет 3:
D          Bm     F#           A
Медляк про любовь для влюблённых людей
D        Bm           F# 
Музыка громче, звёзды поярче,
A
Нет никаких проблем.

D           Bm      F#       A
Вы счастливы вместе, настоящая любовь
D            Bm
Секс в элитном отеле,
F#       A    
Преферанс, кола, свечи...


D                    Bm                      
Это всё просто пиздеж, разбиваю двери в кровь
F#               A
Настоящая любовь, настоящая любовь
D                  Bm
Пью таблетки, задыхаюсь, умираю, замерзаю,
F#                A
Но тебя я покидаю, но тебя я покидаю.

D                    Bm
Никому блять не понять, что я чувствую сейчас,
F#                  A
Пошёл нахуй и ты тоже, и ты тоже, пидорас.
D                    Bm
Осуждайте сколько надо, мне уже ебать на вас
F#                    A   
Но зато я буду счастлив всё сказать хоть в этот раз.

Припев:

D             Bm
Настоящая любовь это больно,
F#             A
Никогда не бывает довольна
D                Bm                F#
Нет предела ничему, если я тебя люблю
                A                  D Bm  
Если я тебя люблю, если я тебя люблю,
F#       A       D Bm
Если я тебя люблю,
F#       A       D Bm
Если я тебя люблю,
F#       A       D Bm
Если я тебя люблю,
F#       A
Если я тебя люблю.

Бой "шестёрка"; Третий куплет играется "Вальсовым".
Наверх