Аккорды «Nevermore»

Nevermore
Смешав пауэр и традиционный хеви с современными ритмами, "Nevermore" заняли свою нишу в мире рок-музыки. Эта группа из Сиэтла появилась на свет в 1994 году на обломках другой команды - "Sanctuary", где играли несколько ее участников. Исповедовавшие трэш, "Sanctuary" записали пару альбомов под руководством Дэйва Мастейна ("Megadeth"), но, будучи брошенными лейблом по причине нашествия гранжа, прекратили свою деятельность. В исходный состав "Nevermore" вошли вокалист Уоррел Дэйн, басист Джим Шеппард,… Читать полностью... Смешав пауэр и традиционный хеви с современными ритмами, "Nevermore" заняли свою нишу в мире рок-музыки. Эта группа из Сиэтла появилась на свет в 1994 году на обломках другой команды - "Sanctuary", где играли несколько ее участников. Исповедовавшие трэш, "Sanctuary" записали пару альбомов под руководством Дэйва Мастейна ("Megadeth"), но, будучи брошенными лейблом по причине нашествия гранжа, прекратили свою деятельность. В исходный состав "Nevermore" вошли вокалист Уоррел Дэйн, басист Джим Шеппард, гитарист Джефф Лумис и барабанщик Ван Вильямс. Подписав контракт с "Century media", группа начала также свое длительное сотрудничество с продюсером Нилом Керноном, имевшим значительный опыт работы с такими командами, как "Dokken", "Judas Priest" и "Queensryche". Выпустив в 1995-м неплохой одноименный альбом, "Nevermore" отправились сопровождать "Death" в американском туре и "Blind guardian" – в европейском. Вскоре в коллективе появился еще один гитарист – Пэт О'Брайен из "Monstrosity", дебютировавший на EP 1996 года "In memory". Релиз, представлявший собой несколько каверов и переработанный материал "Sanctuary", пришелся по душе публике и критикам, и группа в том же году подготовила новый полнометражный альбом "Politics of ecstasy". На нем более полно проявились таланты О'Брайена, Лумиса и Вильямса. Однако Пэт недолго пробыл в коллективе и ушел в "Cannibal Corpse". На его место был рекрутирован давний друг "Nevermore" и бывший участник "Forbidden" Тим Калверт. Тим не только неплохо владел гитарой, но и внес свою лепту в сочинение песен. Его композиторский дар вполне проявился на мрачном концептуальном альбоме 1999 года "Dreaming neon black". Пластинка была посвящена погружению человека в безумие с последующим самоубийством после таинственной смерти его любимой женщины. Диск с восторгом был встречен прессой, и многие издания окрестили "Dreaming neon black" альбомом года. За ним последовали напряженные гастроли, сначала по Штатам - с "Mercyful fate", затем по Европе – с "Iced earth", и наконец - по Австралии. Частые переезды и бесконечные концерты вывели из равновесия Тима Калверта, и он был вынужден покинуть команду. Оставшись вчетвером, "Nevermore" наняли нового продюсера - Энди Снипа ("Machine head", "Testament", "Kreator") и отправились готовить очередную пластинку в техасскую студию "Village studios". Результат превзошел все ожидания, и "Dead Heart In A Dead World" оказался в списках множества рок-изданий на звание "лучшего альбома". Но свое мастерство музыканты проявляли не только в студии – они с легкостью держали "на кончиках пальцев" многотысячные аудитории на таких солидных фестивалях, как "Wacken Open Air", "Dynamo", "With Full Force". В последующие два года "Nevermore" очень много времени провели на гастролях, деля концертные площадки с такими коллективами, как "Arch Enemy", "In Flames", "Shadows Fall", "Opeth", "Angel Dust", "Savatage". К студийной работе группа вернулась в 2003-м, записав с продюсером Келли Грэем ("Queensryche", "Dokken") очередной шедевр "Enemies Of Reality". В июле 2005 года команда записала очередной альбом "This Godless Endeavor". В 2006 году группа выезжает в турне по Северной Америке вместе с "Disturbed" и "In Flames". Текущий состав: Warrel Dane - вокал Jeff Loomis - гитара James Sheppard - бас Van Williams - ударные Бывшие участники: Pat O'Brien - гитара Tim Calvert - гитара Steve Smyth - гитара Mark Arrington - ударные Скрыть...
Популярные аккорды Nevermore:
алфавиту | просмотрам | случайно
  • Intro:
    |--------------------------------------------|
    |--------------------------------------------|
    |--------------------------------------------|
    |--------------------------------------------|
    |--------------------------------------------|
    |-7-7-10-10-15-10-12-12-12-12-12-12-12-12-12-|
    |-0-0-…
  • open E-strings are muted    
    -----6---------------------------------------------------------------
    ----b10-----------------------6--------------------------------------
    ------------------9----------b10-----------9-------------------------
    ------------------x------------------------x-------------------------
    ------------------7------------------------7-------------------------
    ---------0-0-0-0----0-0-0-0------0-0-0--0-----0-0-0-0----------------…
  • Tuning: Down 1/2 step
    
    
           Intro
    e|---------------------------------------------------------------------------|
    B|---------------------------------------------------------------------------|
    G|---------------------------------------------------------------------------|
    D|------------555/-66-33----------------------------------------------------|X…
  • 1)
    ---------------------------------------------------------------------
    ---------------------------------------------------------------------
    ---------------------------------------------------------------------
    ---------------------------------------------------------------------
    ------------7-----10-------------7-9-100-9---------------------------
    -0--0-0-0-0---0-0-----0--0-0-0-0-------------------------------------
    
    ---------------------------------------------------------------------
    ---------------------------------------------------------------------
    ---------------------------------------------------------------------
    ---------------------------------------------------------------------
    ------------6-----9--------------6-9-6--7----------------------------
    -0--0-0-0-0---0-0-----0--0-0-0-0-------------------------------------
    
    2)Harmony…
  • tune down 1/2 step
    
    intro
    gtr.1
    :--------------0---------------------
    :-----------------------------3---5--
    :-2-----5--3--(3)----2-----5--3---3--
    :-0---003--1--(1)--110---005------3--
    
    gtr.2
    :--------------------------------
    :--------------------------------
    :-0-0-0-1--0-0-0-3p0-0-0-6p0-0-0-
    
    verse
    :-2-----3----1----2-------3------1--
    :-2-222-3-33-1-11-2-2-222-3-3333-1--
    :-0-000-0-00-0-00-0-0-000-0-0000-0--
    
    bridge
    :-------------------------------------------------------------------------------
    :------3p2p0-3----------3p2p0-3----------3-2-0-2----------3p2p0-2----------3p2p0
    :-0h3h5-------2--3-0h3h5-------2--3-0-3-5-------2--3-0h3h5-----3-2--3-0h3h5-----
    :-------------0001-------------0001-------------0001-------------0001-----------
    
    chorus
    :--------------------------------------------------------------------1-
    :-3-2----2----2------3-2----2----2----3-2----2----2------3-2----2----1-
    :-1-0-00-0-00-0-0000-1-0-00-0-00-0----1-0-00-0-00-0-0000-1-0-00-0-00---
    
    solo…
  • -------------------------------------------
    -------------------------------------------
    -------------------------------------------
    -------------------------------------------
    --5-5-x-x-9-(9)-9-99--4-4-x-x-7-(5)-7-77---
    --3-3-x-x-7-(7)-7-77--2-2-x-x-5-(5)-5-55---
    
    
    --------------------------------------------------------------------------
    --------------------------------------------------------------------------
    --------------------------------------------------------------------------
    --------------------------------------------------------------------------
    --5-5-x-x-9-(9)-9-11-(11)-9--4-4-x-x-6-(6)--------------------------------
    --3-3-x-x-7-(7)-7-9--(9)--7--2-2-x-x-4-(4)--------------------------------…
  • (There's only the initial harp.)
    
    Tune Guitar 1/2 Step Down!
    
    Harp. Intro
    
    D|---------------------0---------|------0------0------------0-----0--------|
    A|------------------0------------|----0------0------0-----0-----0----------|
    F|------------16----------16----|-16----14----12----14---12----11----|
    C|--------------------------------|-------------------------------------------|
    G|--------------------------------|-------------------------------------------|
    D|---0---------------------------|-------------------------------------------|
    
    
    D|------0----0----0----0-----|---0----0------------0-----0------------------0--|
    A|-----8----8----8----8------|--8----8------------8-----8-------------------0--|
    F|-7h9----9----9----9-------|-7----7----7-------------------7--7slide16-16-|
    C|-----------------------------|---------------9h10----10------------------------|
    G|-----------------------------|----------------------------------------------------|
    D|-----------------------------|----------------------------------------------------|
    
    Repeat…
  • ----------------------------------------------|---------------------------------
    ----------------------------------------------|---------------------------------
    -------------------------0--------------------|---------------------------------
    --5-3---5-----5--------2----5-3---5------5----|---------------------------------
    --3-1---3-4---3-3----2------3-1---3-4----3-3--|-2-2---2-2-2-2--5--2-------------
    --3-1---3-2---3-1--0--------3-1---3-2----3-1--|-0-0---0-0-0-0--3--0-------------
    
    
    
    -------------------------------------------------------------------------------
    -------------------------------------------------------------------------------
    -------------------------------------------------------------------------------
    -----------------------------------7-------------------------------------------
    -2-2-2-2--3-2--2-2-2-2--5----------5--22--2-2-2-2--5-2--2-2-2-2----------------
    -0-0-0-0--1-0--0-0-0-0--3--0-0--/5-5--00--0-0-0-0--3-0--0-0-0-0----------------
    
    
    
    ------------------------------|-------------------------------------------------
    ------------------------------|-------------------------------------------------
    ------------------------------|------5--4-2---------5-4-2-----------------------
    ------------------------------|-------------5-------------5---------------------
    -------5-------------3--------|-2-2------------3-3------------------------------
    -3-3-5---5-3-5-1-1-3---3-1-3--|-0-0------------1-1------------------------------
    
    
    
    -------------------------------------------------------------------------------
    -------------------------------------------------------------------------------
    ----------5-4-2---------5-4-2----------------5-4-2---------5-4-2---------------
    ----------------5-------------5--------------------5-------------5-------------
    -2-2-3-2-----------3-3-----------2-5-3--2-2-----------3-3-----------2-2-3-2----
    -0-0-1-0-----------1-1-----------0-3-1--0-0-----------1-1-----------0-0-1-0----…
  • Riff 1
    
    
    //--------------------------------------------------------//
    //----10-------8-------10-----8-----8-----7-----8-----7---//
    //----9--------9-------9------9-----9-----9-----9-----9---//
    //----9--------9-------9------9-----9-----9-----9-----9---//
    //----7--------7-------7------7-----7-----7-----7-----7---//
    //--------------------------------------------------------//
    
    Riff…
Наверх