Аккорды «Nickel Creek»

Популярные аккорды Nickel Creek:
алфавиту | просмотрам | случайно
  • Tip: (For best viewing, paste onto a notepad, set font to 'courier new' and enlarge the notepad window)
    
    INTRO: (GUITAR 2)
    (To simulate the mandolin on guitar)
    e-12--12--12--12--12--12--12--12--12--12--12--12--12--12--12-----|
    B---12--12--12--12--10--10--10--10--9---9---9---9---7---9---10---|
    G----------------------------------------------------------------|
    D----------------------------------------------------------------|
    A----------------------------------------------------------------|
    E----------------------------------------------------------------|
    
    e---9-11-12--12--14--14h16--12-11-12-12--12--12--9-12-11-9-------|
    B-12-------12--12--12------------------10--10--10---------12-10--|
    G----------------------------------------------------------------|
    D----------------------------------------------------------------|
    A----------------------------------------------------------------|
    E----------------------------------------------------------------|
    
    ---------12----14--14h16--12-11-12-12--12--12--9-12-11-9--------|
    -------12----12--12------------------10--10--10----------12-10--|
    --10s13----14---------------------------------------------------|
    ----------------------------------------------------------------|
    ----------------------------------------------------------------|
    ----------------------------------------------------------------|
    
    ---------12----||…
  • ******CAPO 3RD FRET*********
    
    VERSE 1
    G |---------------0--------------------0------------------------|
    D |-----------0-------------0-------0-------------0-------------|
    Bb|-------2--------------2-------2-------------2----------------|
    F…
  • Standard Tuning
    
    |---------------------------------------0---|
    |---------------0------------------0--3-----|
    |----------0--2---0-----------0--2----------|
    |------2p4----------4-----2p4---------------|
    |----2------------------2-------------------|
    |--0------------------0---------------------|
    
    
    |--------0---0-----0---------------------------|
    |------3---3-----2-----------------0-----------|
    |----4----4----2-------------0--2----0---------|
    |------------------------2p4-----------4-------|
    |--0----0----0---------2--------------------2--|
    |--------------------0-------------------0-----|
    
    |------------------0-----0----0-----0----------|
    |-------------0--3-----3----3-----2-----0------|
    |-------0--2---------4----4-----2-----0--------|
    |--2p4-----------------------------------------|
    |-----------------0-----0-----0-----0----------|
    |----------------------------------------------|
    
    |----0----------------------------------0---|
    |--------3-0-3-0----------------------------|
    |-----------------0-2-2-0-------------------|
    |--------------------------2-2-0-----0------|…
  • G Bm7 F Am
    G Bm7 F G
    x2
    
    G Em Em C G C D
    G Em Em C G D G
    
    Em Am G Em G Bm7
    C G D Am G
    
    G                                                     Bm7
    In a room full of people, all hanging on one person's breath.
    F…
  • e-------------------------------------------|
    a-------------------------------3-----------|
    d-------------0---5s7--7--5--5-----3--0-----|
    g--2--2--2h5--------------------------------|
    
    e-------------------------------------------|
    a-------------------------------------------|
    d--1--0--------2p0--------3s5--5--3-3--2-2--|
    g--------5--2-------5--2--------------------|
    
    e-------------------------------------------|
    a-------------------------------------------|
    d--0-0--------------------------------------|
    g------0-0-1-1-2-2-3-3-4-4-5-5-6-6-7-5-2----|
    
    e-------------------------------------------|
    a-------------------------------------------|
    d--3-2-0----------3-5-7-9-9-12---12-12-12---|
    g---------7-5-7-7---------------------------|
    
    e-------------------------------------------|
    a-------------------------------------------|
    d--12-12-10--10-10-10--10-10-10-9--9-9-9-7--|
    g-------------------------------------------|
    
    e-------------------------------------------|
    a-------------------------------------------|
    d--7-6-5-4-3-2-1-0--------------------------|
    g------------------6------------------------|…
  • Capo 3
    
    Intro: (1st half verse chords) x 1
    
    Verse 1:
    E*            F#*  D*   E*          F#*   A*
    Young and with no clue, and I wanna love you
    
    E*          F#* C#m*    D*   E*
    Give me the key to     what it's about…
  • Aadd9  A  Aadd9  A  Aadd9  A
    INTRO
    
              Em7                    Dadd9
    There's a kind of emptiness that can fill you.
              Em7                 Dadd9
    There's a kind of hunger that can eat you up.…
  • Bm         D         A      Em
    Lonely the life that once I led.
    Bm          D                 A
    Strange the paths on which we tred
    D                 G          A
    Led me to you, unlikely but true.
    Em    A     Bm…
  • NOTES: capo fret 4
    
     
    Verse 1:
               G                        Bm 
    You got to leave me now, you got to go alone,
               G                         Bm
    You got to chase a dream, one that's all your own
      A…
  • Main Theme:
    Time : 0:00 - 0:12
    e-||---------------------------------------------------|
    b-||---------------------------------------------------|
    G-||-12-12-12-----12-------12-14-16^12----17^12----14--|
    D-||-----------16----14-16-------------12-------12-----|
    A-||---------------------------------------------------|
    E-||---------------------------------------------------|
    
    -----------------------------------------|
    ----------------15-17-------15-----------|
    -12-14----12/14-------14-------14----12--|
    -------16----------------16-------16-----|
    -----------------------------------------|
    -----------------------------------------|
    
    ---------------------------------------------------------------------|R|
    ---------------------------------------------------15-17-------------|E|
    ----12-------12-14-16^12----17^12----14---12/14----------14-------12-|P|
    -16----14-16-------------12-------12------------16----------16-12----|E|
    ---------------------------------------------------------------------|A|
    ---------------------------------------------------------------------|T|
    
    
    Time:…
  • Intro -
    
    G F Dm Dm
    
    
    G     D         G    Bm
    why should the fire die,
       Gm       Bm       G       D
    my mom and dad kept theirs alive,
         G    D        G          Bm      
    its early yet don't say goodnight,…
  • Intro (hook):
    F Em Am C  F Em Am C
    F Em Am C  F Em Am -
    
    Verse1:
    Am   Em          Am         Em  Dm
    Blue Water, Blue eyes color me.
       Am             Em             Am       Em   Am
    If any could come this close I'd…
  • NOTE: capo on fret 1
    ----------------------------------------------------------
    Intro = verse 1st half
    
    Verse 1:
    Em                   D           C     D
    Where am I today?  I wish that I knew,
           Em…
  • INTRO:  G C Em D  G C Em D  G C Em D
    
    VERSE 1:
        B                   C
    The boy only wanted to give Mother something
        G                      D
    And all of her roses had bloomed.
    B                     C
    Looking…
  • VERSE 1
    
    ([ch]Dsus2/A[/ch])
    Where can a sick man go?
    
    When he can't choke down the medicine, the old doc knows?
    
    ([ch]Dsus2/Bb[/ch])
    A specialist came to town, but he stays at home, sayin'
    
    ([ch]D7sus4/G[/ch])
    No…
  • Intro:
    |-----2-3-5---3-|-2---7-5-2---0|-----2-0---------|-------------2--------|
    |---0-----0---0-|---0-----0---0-|-3-------3---2---|-0---2-3-5-----------|
    |-4-------2------|-0-----------  --|---0------0---0-|---0-------4-------|
    |-----------------|---------4------…
  • Capo 2; chords relative to capo
    
     
    G 
    The fox went out on a chilly night 
                              D 
    He prayed for the moon to give him light 
    G                       C 
    For he
  • Capo 4:
    Key Signature: E major/C relative to Capo
    Time Signature: 4/4
    Tempo: 69-74  Adagietto con dolcezza
    
    Chords used in order (relative to the Capo):
    Also, kids, seriously, check out notes and notations. Everything…
  • F#m
    "Well met, well met, said an old true love.
    
    "Well met, well met, said he.
    				E	    C#m
    "I have just returned from the salt, salt sea.
    	D		E	F#m 
    "And it's all for the love of thee." 
    
    (The rest is all the…
  • Intro = hook = 2 lines of verse
    Verse:
           Em          G                           D
    I am a Lighthouse, Worn by the weather and the waves.
              Em           G                         D
    I keep my lamp lit, to…
  • E - 0-7-9-9-0-0
    
              E                  B        A                          E

    Flow gently, sweet Afton, among thy green braes,
  
             C#m             B              A               E
    
Flow gently, I'll sing…
  • Intro
    A2 		E/G#    	G6   D/F#   	Esus   	E   	Esus   	E  (x2)
    
    Verse
    A2 		E/G#  	   G6    D/F#  A2 		E/G#     G6  	    D/F# 
    Well I sat down next to a photograph,   tried my best almost made her laugh
    A2 		D/F#	  Bsus…
  • C             F           C
    If today was not an endless highway, 
    C             F           C
    If tonight was not a crooked trail, 
    F             G           C
    If tomorrow wasn't such a long time, 
             F…
  • C#m               E
    Helena, don't walk away
                A       C#m      F#m 
    Before you give me back my heart
                C#m                 E
    If it were mine, it would be yours to take
              A      C#m…
  • C#m      B         A          E
    I didn't hear you say you're sorry.
    F#m        C#m      Ab7
    The fault must be mine.
    C#m        B        A       E
    I wish you all the best of luck at
    F#m  C#m          B         E
    Finding…
  • D9sus4        D9sus4          D9sus4/G    D9sus4/A
    e-------------------------------------------------------|
    B--3-------------3--------------------------------------|
    G--------0---------------0-------------0-------------0--|
    D-----4-----(4)-------4-----(4)-----4-----(4)-----4-----|
    A--5-------------5-----------------------------0--------|
    D--------------------------------5----------------------|…
  • G           Bm     Em          C D
    However you feel, whatever it takes
    G             Bm    Em         C    D
    Whenever it's real, whatever awaits me
    G             Bm    Em         C  D
    Whatever you need, however so slight
    G…
  • -standard tuning
    
        B-flat
    E---------------------------|
    A-----8--------8------------|
    D-8-------8-----------------|
    G---7---7---7---------------|
    B---6---6---6----7s8-11-8-7-|
    E---6---6---6---------------|…
  • e-----18-15-------------------------------------------------------------|
    B---18-----15-18-18b20r18b20-18-15--------------------------------------|
    G-19------------------------------18-17-15------------------------10-12-|
    D------------------------------------------17-15-12-11-10-8-7-----------|
    A------------------------------------------------------------11-10------|
    E-----------------------------------------------------------------------|
    
    e---------------------------------------------------10-11-17-18-20------|
    B----------------------11-11---------14-14-11--10-11--------------------|
    G------12-------------------12------------------------------------------|
    D-10/12---11-10--10/12---------10/12------------------------------------|
    A-----------------------------------------------------------------------|
    E-----------------------------------------------------------------------|
    
    e-20b22-20-18---20b22-20-18--22b25-22-18-22-(15-17-18-18-18-15v)---------|
    B------------20------------20--------------------------------------------|
    G------------------------------------------------------------------------|
    D------------------------------------------------------------------------|
    A------------------------------------------------------------------------|
    E------------------------------------------------------------------------|…
  • Am
    
    Am
    Trying on a brand new dress
    
    But you haven't worn the old one yet.
                    F                   Am
    You've come too far, to turn around now.
    
    Giving up the good fight.
    
    You're as strong as anyone.…
  • Intro = hook = 2 lines of verse
    Verse:
           Em          G                           D
    I am a Lighthouse, Worn by the weather and the waves.
              Em           G                         D
    I keep my lamp lit, to warn…
  • Capo 2
    
    E---------------0-2---0------------------------------------|
    B-------------3-----3---3-0---0-2-3-0----------------------|
    G-----------2---------------2---------2-0-----------2-0----|
    D-----0-2-4-------------------------------4-2-0-2-4--------|
    A-0-2------------------------------------------------------|
    E----------------------------------------------------------|
    
    E-----------------0---0-0-2-2-0-----0---0-0---0-0-2-2-0----|
    B-------0-3-2-0-----------------3-0---------------------3--|
    G---------------2---2-----------------2-----2--------------|
    D-4-2-0----------------------------------------------------|
    A----------------------------------------------------------|
    E----------------------------------------------------------|
    
    E----------------------------------------------------------|
    B-0-2-3-0--------------------------------------------------|
    G---------2-0----------------------------------------------|
    D-------------4-2-0-------0-----0-0---4-2-0-----0---0-----0|
    A-------------------0h2h4---4/5-----5-------0h2---0---4/5--|
    E----------------------------------------------------------|
    
    E----------------------------------------------------------|
    B----------------------------------------------------------|
    G----------------------------------------------------------|
    D-0-0-4-2-0-2-0---0---2---2---2-4-4-2-0----0---2---2-------|
    A---------------2---0---0---0-----------2----0---0---0-----|
    E----------------------------------------------------------|
    
    E----------------------------------------------------------|
    B----------------------------------------------------------|
    G----------------------------------------------------------|
    D-2-4-4-2-0-----0-----------------2-0----------------------|
    A-----------2h4---2-0-------0-2-4--------------------------|
    E---------------------3-2-3--------------------------------|…
  • Tuning: DADGAD (that's important)
                                                            
       D   A   G
    D--0---0---0-----|
    A--0---0---0-----|
    G--2---6---4-----|
    D--0---7---5-----|
    A--0---7---5-----|
    D--0---7---5-----|
    
    
    Verse:…
  • Intro:  F C, F C, F G C
    
    C            F               C            F 
    what will be left when i've drawn my last breath,
      Am                   F                     G       G
    besides the folks i've met and the folks…
  • Em A Em A C D9(no3) Em C  D9(no3) Em C D9(no3) C#m
    
    C#m F# C#m F# A Am G Gm F 
    
    Dm C Dm C Dm C Dm D
    
    Dm G Dm G Dm Bb C Dm Bb C Dm Bb C Bm B
    
    Em A Em A C D9(no3) Em C D9(no3) Em C D9(no3) C#m
  • e|-------------------------------------------------|
    B|-------------------------------------------------|
    G|-2-----2h4--6-----6h7--2-----2h4--6-----2--2-----|   x1
    D|----0----------0--0-------0----------0--------0--|
    A|-------------------------------------------------|
    E|-------------------------------------------------|
    
    e|-------------------------------------------------|
    B|-------------------------------------------------|
    G|-2-----4--6-----6h7--2-----2h4--6-----2--2-------|…
Наверх