Аккорды «Nickelback»

Nickelback
Группа Nickelback появилась в 1996 году в небольшом канадском городке Ханна. Она была сформирована братьями Чадом (вокал, гитара) и Майком (бас) Крюгер, их кузеном Брэндоном (барабаны) и Райаном Пике (гитара). Однако Брэндон Крюгер вскоре покинул группу. Музыкантам пришлось искать ему замену. Прежде чем был найден Райан Викдэйл, в группе сменилось шесть барабанщиков. Довольно долго музыканты не могли придумать подходящее название и перебрали несколько вариантов. Прежде чем стать Nickelback канадский… Читать полностью... Группа Nickelback появилась в 1996 году в небольшом канадском городке Ханна. Она была сформирована братьями Чадом (вокал, гитара) и Майком (бас) Крюгер, их кузеном Брэндоном (барабаны) и Райаном Пике (гитара). Однако Брэндон Крюгер вскоре покинул группу. Музыкантам пришлось искать ему замену. Прежде чем был найден Райан Викдэйл, в группе сменилось шесть барабанщиков. Довольно долго музыканты не могли придумать подходящее название и перебрали несколько вариантов. Прежде чем стать Nickelback канадский квартет именовался Brick, еще ранее - Village Idiot, ну а самое первое название коллектива - Point of View. Собственно "nickelback" в буквальном переводе означает "сдача". Это слово появилось в жизни группы в то время, когда Майк Крюгер работал официантом в кафе. Сдача с чашки кофе обычно составляла 5 центов (на слэнге - "Nickel"). При расчете с клиентом, Майк все время повторял одну и ту же фразу: "Here's your nickel back" (в переводе - "Вот ваша сдача"). В конце концов, музыканты решили отказаться от мудрёных названий, облюбовав более простое и привычное "nickelback". Со своим музыкальным стилем группа так же определилась не сразу. Сначала музыканты лишь исполняли кавер версии других коллективов. Но они были не очень удачны. Кроме того, группе давно уже хотелось добиться настоящей известности. Однако для этого необходимо было записать что-то свое. Такая идея пришла в голову Чаду Крюгеру, правда, финансировать проект пришлось его родителям. Для того чтобы сын смог оплатить услуги студии звукозаписи в Ванкувере, им пришлось выложить 4000$. Это был первый шаг. В том же 1996 году ребята записали свой первый демо-альбом "Hesher", с которым дали серию концертов в Канаде. В него вошло не так уж много песен, зато наконец-то было покончено с надоевшими всем каверами. Раскруткой проекта занимался Чад Крюгер. В этом ему помог опыт, приобретенный во время работы в рекламном отделе спортивного журнала. Схема была довольно проста: по просьбе Чада его друзья звонили на местные радиостанции и заказывали песни Nickelback. Этим группа добилась нужного результата, однако ей нетерпелось поскорее выйти на более высокий уровень. Но недостаток денежных средств и обман со стороны собственных менеджеров не давали группе развернуться. В 1998 году было сделано несколько важных шагов. Во-первых, группа решила самостоятельно заниматься рекламной и организаторской деятельностью. Во-вторых, музыканты перебрались в Ванкувер, где выступали в клубах, причем довольно успешно. Это позволило собрать сумму, необходимую для выпуска нового альбома. Кроме того, коллективу удалось обратить на себя внимание и получить поддержку таких людей как Дэйл Пеннер (продюссер Matthew Good Band) и Гарт Ричардсон (звукоинженер Rage Against the Machine). Уже в 1999 Nickelback ограниченным тиражом выпускает свой новый альбом "Curb". Сам альбом не был успешным, но нельзя не отметить успех сингла "Leader Of Men". Этот сингл вошел в альбом "The State", вышедший в 2000 году полумиллионным тиражом. Это был настоящий успех! Песни Nickelback звучали на всех радиостанциях Канады. С альбомом "The State" музыканты отыграли сотни концертов, выступая с такими группами как Creed, Fuel и 3 Doors Down. Группу буквально осаждали продюсеры, стараясь изо всех сил заполучить контракт. В конечном итоге Nickelback отдали свое предпочтение лейблу "Roadrunner Records" (США), отвергнув при этом предложения "Island" (США) и "EMI" (Канада). Свой следующий альбом Nickelback записывает 11 сентября 2001 года. В новом альбоме ребята немного отошли от расплывчатых образов и философских изысканий, привнеся в свои тексты более четкие и реальные сюжеты. Темами нескольких песен стали неприятные моменты из жизни братьев Крюгер, а именно уход из семьи их отца. Вышедший "Silver Side Up" побил успех предыдущего альбома, и всего за 4 месяца в 6 раз превысил его тираж. Этот альбом стал золотым, платиновым и мультиплатиновым. "Silver Side Up" позволил группе пробиться в американский эфир и завоевать любовь поклонников синглом "How You Remind Me". Успех превзошёл все ожидания. Сингл "How You Remind Me" не только прочно закрепился на американских радиостанциях, но и возглавил хит-парады шести из них. Кроме того, "How You Remind Me" установил рекорд по выходу в эфир, за неделю прозвучав на волнах радиостанций более 3000 раз. Группа так же привлекла к себе внимание радиостанций Германии, Великобритании, Голландии, Австралии и других стран. Для канадской группы это впечатляющий результат. Но, говоря об успехе альбома, нельзя не упомянуть Рэнди Стаубе, который занимался микшированием. Он известен своим сотрудничеством с такими группами как Metallica и U2. Помощь группе так же оказал продюсер Рик Парашер, занимавшийся раскруткой Pearl Jam и Temple of the Dog. Участие этих людей во многом способствовало выходу группы на новый качественный уровень, который и стал залогом мирового признания. Очередной альбом вышел в 2003 году. Несмотря на то, что к его записи не были привлечены специалисты со стороны, Nickelback лишь своими силами смогли добиться качественного во всех отношениях звука. Группа стала более профессионально и серьезно относиться к записи своих треков. Альбом "The Long Road" записан в том же мелодично-агрессивном стиле. Он даже ещё более откровенный, нежели "Silver Side Up". Музыканты по праву гордятся этим альбомом и считают, что их творчество эволюционирует в нужном направлении, сближая их с чувствами слушателей. Так же поклонников Nickelback порадовало то, что с альбомом "The Long Road" группа дала гораздо больше концертов. Этот альбом стал еще одним достижением, добавив группе ещё большей известности в мировом масштабе. В 2005 году произошли небольшие изменения в составе. С дистанции сошел барабанщик Райан Викдэйл, которого заменил бывший участник группы 3 Doors Down Дэниель Адаир. В том же году, уже обновлённым составом, Nickelback записывает альбом под названием "All The Right Reasons", который также стал успешным и разошёлся большим тиражом. Многие слушатели называют его апогеем развития творчества группы. Последний на данный момент альбом группы - "Dark Horse" вышел 18 ноября 2008 года и получил весьма противоречивые отзывы. Тем не менее история продолжается. Дискография 1996 - Hesher 1996 - Curb 1999 - The State 2001 - Silver Side Up 2003 - The Long Road 2005 - All The Right Reasons 2008 - Dark Horse 2011 - Here and Now http://www.nickelback.com http://www.nickelback.net.ru Скрыть...
Популярные аккорды Nickelback:
алфавиту | просмотрам | случайно
  • Introduction ( clean acoustic )
    
    
              Chords used
    
    
              Bm              G               A            D
    E|-----2----------|------3---------|------0---------|2------------||
    B|----3-----------|-----0----------|-----2----------|3------------||
    G|---4------------|----0-----------|----2-----------|2------------||
    D|--4-------------|---0------------|---2------------|0------------||
    A|-2--------------|--2-------------|--0-------------|0------------||
    E|0---------------|-3--------------|-0--------------|0------------||
    
    
    How…
  • Chord variations used;
    
    Verses/ Pre Chorus/ Bridge
    Em:    G*:     Asus:    Aadd9:  Cadd9*:
    E|0    E|3     E|x        E|x     E|x
    A|2    A|2     A|x        A|0     A|3
    D|2    D|0     D|0        D|2     D|2
    G|0    G|0…
  • NOTE: GTR's 3-5 can be eliminated with various effect pedals on GTR's 1 & 2.
    
    GRT I - Drop D Tuning "Chad Kroeger" Clean (e,B,G,D,A,D)
    GTR II - Drop D Tuning "Ryan Peake" Clean w. Tremelo (e,B,G,D,A,D)
    GTR III - Drop…
  • NOTE: I couldn't figure out the solo.
    
    GTR I - Drop C Tuning "Chad Kroeger" Distortion (d,A,F,C,G,C)
    GTR II - Drop C Tuning "Ryan Peake" Distortion(d,A,F,C,G,C)
    GTR III - Drop C Tuning "Ryan Peake" Clean w. Tremelo (d,A,F,C,G,C)
    GTR…
  • NOTE: I could not figure out all of the solo, but what I did is there.
    
    GTR I - Standard Drop B Tuning "Chad Kroeger" (e,B,G,D,A,B)
    GTR II - Standard Drop B Tuning "Ryan Peake" (e,B,G,D,A,B)
    GTR III - Standard Drop B…
  • GRT I - Drop D Tuning "Chad Kroeger" (e,B,G,D,A,D)
    GTR II - Drop D Tuning "Ryan Peake" (e,B,G,D,A,D)
    
    Intro
    
      GTR I,II
    e|-------------|-------------|-------------|-------------|-------------|
    B|-------------|-------------|-------------|-------------|-------------|
    G|-------------|-------------|-------------|-------------|-------------|
    D|----DRUMS----|----BASS-----|----BASS-----|-------------|-------------|
    A|-------------|-------------|-------------|-feedback----|--pickscrape-|
    D|-------------|-------------|-------------|-feedback----|--pickscrape-|
    
    Main…
  • Capo 1st fret
    
    Verse 1:
    Am         F            G         
    One more depending on a prayer and we all look away
    Am        F             G
    People pretending  everywhere it's just another day
    Am               F…
  • Chords : G, D, Em, C all the way through.
    
    (Verse 1)
                                      G
    Are you waiting on a lightening strike?
                                  D
    Are you waiting for the perfect night?…
  • D Tuning D-A-D-G-B-E
    
    e---------------------------------------------------------
    B---------------------------------------------------------
    G---------------------------------------------------------
    D----0--2-----2----2----0--2----2----2--------------------
    A---------------------------------------------------------
    E----------2-----2----2-------2----2----------------------
    (With…
  • (Verse 1)
    E              B                     C#m
    Time, is going by, so much faster than I,
                                      A
    And I'm starting to regret not spending all of here with you.
         E              B…
  • Tuned down half step 
    Intro:   Dm   F   C   G
    
    
    Verse:          Dm     F                C                     G
    Well I know the feeling, of finding yourself stuck out on the ledge
                       Dm     F…
  • Intro/Verse (acoustic) "Prison gates won't open up for me"
    D|--------------------------------------------------------------------------|
    A|--------------------------------------------------------------------------|
    F|-----0---------0-------0---------0-------0---------0-------0---------0----|
    C|---7---------7---7---7---7-----3---0---7---------7---7---7---7-----7---0--|
    G|--------------------------------------------------------------------------|
    C|-8-----0-3-3-------5-------0-0-------8-----0-3-3-------5-------5-5--------|
    
    Pre-Chorus…
  • Verse/Intro(/After chorus with distorsion (muted))
    
    e|-------------------------------------------------------------------------|
    B|-------------------------------------------------------------------------|
    G|----------1----------------4---------------------------------1-----------|
    D|------4-------4--------7--------7-------2----4----2------4-------4-------|
    A|----4---4---4--------7---7----7-------2---2-----2-------4---4---4--------|
    E|--2----------------5----------------0----------------2-------------------|
    
    Singing…
  • G#m     G#msus G#m           E           
    I am so high i can here heavean
    I am so high I can hear heaven                              
         G          A            H            
    But heaven no heaven dont hear me
    
    
    Припев:
  • intro/verse
    i like your pants...
               C5x4    Em5      F5X4   C5x2
    e|-------|------------------------------------|
    B|-------|------------------------------------|
    G|-------|--55XX--------------------55XX--5---|
    D|-10\0--|--55XX---11xx------33XX---55XX--5---|
    A|-10\0--|--33XX---11xx------33XX---33XX--3---|
    D|-10\0--|---------11xx------33XX-------------|
    
    
    Pre…
  • Intro/Verse 1:
     clean
    
    
    Guitar 1&2
    
    D-------------------------------------------------------------------------------|
    A-------------------------------------------------------------------------------|
    F----------------------7--7--7-7-7--7-7-----------------------------------------|
    C---7--7--7-7-7--7-7---7--7--7-7-7--7-7---5--5--5-5-5--5-5---7--7--7-7-7--7-7---|
    G---7--7--7-7-7--7-7---5--5--5-5-5--5-5---5--5--5-5-5--5-5---7--7--7-7-7--7-7---|
    C---7--7--7-7-7--7-7----------------------5--5--5-5-5--5-5---7--7--7-7-7--7-7---|
    
    At…
  • GTR I - Standard Tuning Acoustic "Chad Kroeger" (e,B,G,D,A,E)
    GTR II - Standard Tuning Electric "Ryan Peake" (e,B,G,D,A,E)
    GTR III - Standard Tuning Electric "Chad Kroeger" (e,B,G,D,A,E)
    
    Chords Used
    
       G5    C5…
  • Tuning: standard
    
    Intro
    
    e|-------------------------------------------------|*2
    B|--7-5-7-0-0--7-5-7-0-0--8-7-3-5-5--8-7-3-5---7-5-|
    G|-------------------------------------------------|
    D|-------------------------------------------------|
    A|-------------------------------------------------|
    E|-------------------------------------------------|
    
    
    There…
  • Intro/Verse x2
    e|------------------------------| Not exact number of times picked!
    b|------------------------------|
    G|--99999--77777--22222--55555--|
    D|--99999--77777--22222--55555--|
    A|--77777--55555--00000--33333--|
    E|------------------------------|
    
    Pre-Chorus…
  • Drop D
    
    Intro
    |--------------------------------------------|
    |--------------------------------------------|
    |--------------------------------------------|x2
    |-0000330355356535-0000330355-5--------------|
    |-0000330355356535-0000330355-5--------------|
    |-0000330355356535-0000330355-5--------------|
    
    Verse
    |--------------------------------------------|
    |--------------------------------------------|
    |--------------------------------------------|
    |--000--0-00--000---5-3----------------------|x2
    |--000--0-00--000---5-3----------------------|
    |--000--0-00--000---5-3----------------------|
    
    Chorus
    |--------------------------------------------|
    |--------------------------------------------|
    |--------------------------------------------|
    |-0000330355356535-0000330355-5--------------|x2
    |-0000330355356535-0000330355-5--------------|
    |-0000330355356535-0000330355-5--------------|
    
    Bridge
    |--------------------------------------------|
    |--------------------------------------------|
    |--------------------------------------------|
    |---------------------3-5--------------------|
    |-----333---333---333-3-5--------------------|
    |--000---000---000----3-5--------------------|…
  • (intro)
    HEAVY DISTORTION
    e|------------------------|
    B|------------------------|
    G|-7--------5r------------|
    D|-7-0r--3r-5r-5-5-5r-----|
    A|-5-0r--3r-3r-5-5-5r-----|
    D|---0r--3r----5-5-5r-----|
    
    (pre-verse)
    e|-------------------------------------------------------|
    B|-------------------------------------------------------|
    G|-7-7r-----5r---------3-3/5-5/7-7-------5r--------------|
    D|-7-7r--3r-5r-5-5-5r--3-3/5-5/7-7-0--3r-5r-5-5-5r-------|
    A|-5-5r--3r-3r-5-5-5r--1-1/3-3/5-5-0--3r-3r-5-5-5r-------|
    D|-------3r----5-5-5r--------------0--3r----5-5-5r-------|
    
    (verse)…
  • [Verse 1]
    Bm    A      E                      Bm
    You call to me, and I fall at your feet
                 A             E
    How could anyone ask for more
    Bm        A    E                        Bm
    And our time apart, like…
  • INTRO
    E||--------------------------|--------------------------|
    B||--------0--------0-----0--|--------0--------0-----0--|
    G||--------------3-----3-----|--------------3-----3-----|
    D||-----4-----4--------------|-----4-----4--------------|
    A||--2-----------------------|--------------------------|
    E||--------------------------|--2-----------------------|
    
    --------------------------|--------------------------|
    --------0--------0-----0--|--------0-----2-----------|
    --------------3-----3-----|-----------------4-----4--|
    -----4-----4--------------|-----4-----4--------4-----|
    --------------------------|--------------------------|
    --4-----------------------|--0-----------------------|
    
    VERSE…
  • intro - F G# D# A#
    
    | e|----------------------------------------------|
    | B|----------------------------------------------|
    | G|---------------------8-8-8-8-8-3-3-3-3-3------|   4x
    | D|-3-3-3-3-3-6-6-6-6-6-8-8-8-8-8-3-3-3-3-3------|
    |…
  • (riff 1)
    
        gtr 1
    E|-----------------------------------|-----------------------------------|
    B|-----------------------------------|-----------------------------------|
    G|-----------------------------------|-----------------------------------|
    D|-----------------------------------|-----------------------------------|
    A|-------9-------9-------9-H-10------|-10------10---------9B10R9---------|
    D|---0-------0-------0-----H-10--10--|-10------10------10---------10-----|…
  • Dsus2
    Crowds that scream at superstars
    G
    Where bouncers show they're battle scars
    Bb                     c             Dsus2
    I've been the first to sign on every wall
    Dsus2
    Down the road and round the bend
    G
    We…
  • Intro  Bm7    |     |Em    |     ||
    
    Verse 1
          Bm7                                        Em
    She's got me nervous talkin' a hundred miles an hour
          Bm7                                                Em
    She's…
  • Guitar 1:Clean  Guitar 2:Distorted  Guitar 3: Country-esque Leads
    
    Tuning Low to High: 7 STRING DROP A (A,E,A,D,G,B,E)
    
    INTRO:
    Guitar 1:
    0:00
    E----------------------------------------------------------------|
    B----------------------------------------------------------------|
    G----------------------------------------------------------------|
    D----------------------------------------------------------------|
    A----------------------------------------------------------------|
    E--5-------------------------3----------5------------------------|
    A----0-3-5B6-0-5P3P0--0-3-5B6--0-5P3P0----0-3-5B6-0-5P3P0--------|
    
    Guitar…
  • CAPO: 1
    
    (Bm)               (D)            (A)
    My best friend gave me the best advice 
                                              (Bm)
    He said each day's a gift and not a given right 
                    (D)…
  • NOTE: GTR III is just GTR II with a Tremelo Effect
    
    GTR I - Drop C Tuning "Chad Kroeger" (d,A,F,C,G,C)
    GTR II - Drop C Tuning "Ryan Peake" (d,A,F,C,G,C)
    GTR III - Drop C Tuning "Ryan Peake" Clean w. Tremelo (d,A,F,C,G,C)
    
    Intro…
  • Вся песня на аккорды: H F# G#m7 E F#
     
    This time, This place 
    Misused, Mistakes 
    Too long, Too late 
    Who was I to make you wait 
    Just one chance 
    Just one breath 
    Just in case there's just one left 
    'Cause you know,…
  • Ocнoвнaя тeмa кyплeтa:
    [E---------------------- } пoвтopяeтcя 2 paзa
    B----------------------
    G--7----5---------7----
    D--7----5----5----7----
    A--5----3----5----5----
    E--5----3----3----5----]
    
    Тeмa пpипeвa:
    [E----------------------
    B----------------------
    G--5---------7---------…
  • Вступление
    |-------------------------------------------------------------------
    |------3---------3---------3-------------------3------3-------------
    |------3---------3---------3---------0---------0------0------0------
    |----5---5-----5---5-----5---5-----3---3-----2------2------2--------
    |--6---------6---------6---------4---------3------3------3----------
    |-------------------------------------------------------------------
    |----------------------------------------------------0----------------
    |------3---------3---------3---------------------3-----3------3-------
    |------3---------3---------3---------0---------0---------0----0---0---
    |----5---5-----5---5-----5---5-----3---3-----2-----2----------2---2---
    |--6---------6---------6---------4---------3----------------------3---
    |---------------------------------------------------------------------
    
    Куплет…
  • Tuning: Standard
    
    
    Intro (2x)
    
    Guitar 1 (0:03 - 0:15)
    
    e|-33333-22222----------2222|
    B|-33333-33333-33333333-3333|
    G|-44444-22222-00000000-2222|
    D|-55555-44444-22222222-0000|
    A|-55555-55555-33333333-----|
    E|-33333-22222--------------|
    
    Guitar…
  • NOTE: GTR III is just GTR II with a Reverb effect.
    
    GRT I - Drop D Tuning "Chad Kroeger" Distortion (e,B,G,D,A,D)
    GTR II - Drop D Tuning "Ryan Peake" Distortion (e,B,G,D,A,D)
    GTR III - Drop D Tunning "Ryan Peake" Distortion…
  • Tuning-Drop B Tuning(B, F#, B, E, G#, C#)
    
    Intro Pt. 1(Play 2 Times)                                                    
    C#----------------------------------------------------------------|
    G#----------------------------------------------------------------|
    E…
  • Intro:
    Am F Am G
    Am Dm C F
    
      Am          F
     Head high, protest line
    Am                 G             
     Freedom scribbled on your sign
      Am        Dm
     Headline, New York Times
       C                        F
     Standing…
  • drop d (dadgbe)
    
    intro 1 time. 
    gtr 1 & 2
    
    |-------------------------------------
    |-------------------------------------
    |--5b~~~--------5b~~~-----------------
    |--5b~~~----5---5b~~~--3-3------------
    |---------x-3----------5-5------------
    |---------x---------------------------
    
    
    bass…
  • NOTE: The bridge and solo get kind of confusing, but if you want to play
    with 2 guitars, mesh guitar 3 and 4 together and let guitar 2 play that.
    
    GTR I - Drop C Tuning "Chad Kroeger" (d,A,F,C,G,C)
    GTR II - Drop C Tuning…
  • Intro/Verse
    e-------------------------------------|
    B-------------------------------------|
    G-------------------------------------|
    D--0h1--------------7-7-7-7-7---------|
    A------2--2-2-5--5--0-0-0-0-0--7--7---|
    B------0--0-0-3--3-------------5--5---|
    
    e-----------------------------------------------------------------------------|
    B-----------------------------------------------------------------------------|
    G-----------------------------------------------------------------------------|
    D-----------------------------------------------------------------------------|
    A-----------------------------------------------------------------------------|
    B-0-0-0-0-0-0-0-0-0h3-3-3-3-3-3-3-3/10-10-10-10-10-10-10-10\5-5-5-5-5-5-5-5---|
    
    e---------5-------------------------------------------|
    B---------5-------------------------------------------|
    G---------2-----------------------------(2)-(2)-(2)---|
    D---------2-------------(2)-(2)-(2)-(2)-(2)-(2)-(2)---|
    A---------0-------------(0)-(0)-(0)-(0)-(0)-(0)-(0)---|
    B---0--0----------0--0--------------------------------|
    
    Chorus:
    e------------------------------------|
    B------------------------------------|
    G---5--5-----------------------------|
    D---5--5------------------------2-2--|
    A---3--3----10---10-10--5--5-5--0-0--|
    B------------8----8--8--3--3-3-------|
    
    play…
  • Intro (chad plays this once then ryan kicks in)
    
    D|-----------------------------------------------------------|
    A|-----------------------------------------------------------|
    F|-----------------------------------------------------------|
    C|-2--0-0-0-2---2--0-0-0-2---0-0-0-0-0-2---------------------|
    G|-2--0-0-0-2---2--0-0-0-2---0-0-0-0-0-2-------5---------3h5-|
    C|-2--0-0-0-2---2--0-0-0-2---0-0-0-0-0-2--0-2-0-0-3-0-2-0----|
    
    Intro…
  • Chorus (Dont play in 1st verse)
    
    G|-----------------------------------|
    D|-----------------(x3)--------------|
    A|----------------------22222222-4~--|
    D|44444444-66666666------------------|
    
    Verse
    
    G|----------------------------------------|
    D|-------------------(x2)-----------------|
    A|1-11-4-44-0-00-2-22---1-11-4-44-0-00-2--|
    D|----------------------------------------|
    
    Chorus…
  • Intro
    ------------------------------------------------------------------------------------|
    ------------------------------------3-----------------------------------------------|
    ------------------------------------2-----------------------------------------------|
    -5-7-5-7-10-7-5-7-5-7-10-10-5-7-x-x-0---------------7-5-7-10-10-5-7-x-x-3---10-12---|
    -5-7-5-7-10-7-5-7-5-7-10-10-5-7-x-x-0---------------7-5-7-10-10-5-7-x-x-3---10-12---|
    -5-7-5-7-10-7-5-7-5-7-10-10-5-7-x-x-0---10h12p10----7-5-7-10-10-5-7-x-x-3---10-12---|
    
    -------------------------------------------------------------------|
    ---------------------3---------------------------------------------|
    ---------------------2---------------------------------------------|
    -7-5-7-10-10-5-7-x-x-0--------------7-5-7-10-10-5-7-x-x-3---10-12--|
    -7-5-7-10-10-5-7-x-x-0--------------7-5-7-10-10-5-7-x-x-3---10-12--|
    -7-5-7-10-10-5-7-x-x-0---10h12p10---7-5-7-10-10-5-7-x-x-3---10-12--|
    
    ----------------------------------------------------------------------|
    ---------------------------------5s8s10s13s15s17-17-----15-17-17------|
    ---5----------5-----------5-7-5---------------------14------------14--|
    -7---7--5--7-----7--5--7----------------------------------------------|
    ----------------------------------------------------------------------|
    ----------------------------------------------------------------------|
    
    ----------------------------------------------------------------------|
    -------------------3--------------------------------3-----------------|
    -------------------2--------------------------------2-----------------|
    -7-5-7-10-10-5-7---0--------------7-5-7-10-10-5-7---0---10-12---------|
    -7-5-7-10-10-5-7---0--------------7-5-7-10-10-5-7---0---10-12---------|
    -7-5-7-10-10-5-7---0---10h12p10---7-5-7-10-10-5-7---0---10-12---------|
    
    ----------------------------------------------------------------------|
    ----------------------3-----------------------------------------------|
    ----------------------2-----------------------------------------------|
    -----3----------------0-----------------------------------------------|
    -----3----------------0-----------------------------------------------|
    -----3----------------0-----------------------------------------------|
    
    ----------------------------------------------------------------------|
    -------------------3--------------------------------3-----------------|
    -------------------2--------------------------------2-----------------|
    -7-5-7-10-10-5-7---0--------------7-5-7-10-10-5-7---0---10-12---------|
    -7-5-7-10-10-5-7---0--------------7-5-7-10-10-5-7---0---10-12---------|
    -7-5-7-10-10-5-7---0---10h12p10---7-5-7-10-10-5-7---0---10-12---------|
    
    ----------------------------------------------------------------------|
    ----------------------3-----------------------------------------------|
    ----------------------2-----------------------------------------------|
    -----3----------------0-----------------------------------------------|
    -----3----------------0-----------------------------------------------|
    -----3----------------0-----------------------------------------------|
    
    ----------------------------------------------------------------------|
    ------3------------------------2--------------------------------------|
    ------2-----------------7------2--------------------------------------|
    --7---0----5--10-----5--7--7---0---5--10------------------------------|
    --7---0----5--10-----5--5--7---0---5--10------------------------------|
    --7---0----5--10-----5-----7---0---5--10------------------------------|
    
    -------------------------------------------------|
    -------------------------------------------------|
    -12h14-12h14-12h14-12h14-12h14-12h14-12h14-12h14-|
    -------------------------------------------------|
    -------------------------------------------------|
    -------------------------------------------------|
    
    -----------------------------------------------------------------------------------|
    -----------------------------------------------------------------------------------|
    -12h14-12h14-12h14-12h14-12h14-12h14-12h14-12h14-----12-14-14-12-14-17-14-12-14-12-|
    -------------------------------------------------14--------------------------------|
    -----------------------------------------------------------------------------------|
    -----------------------------------------------------------------------------------|
    
    --------------------|
    --------------------|
    --------------------|
    -14-12-12-14-14-----|
    ----------------12--|
    --------------------|
    
    ------------------------------------------------------|
    ------------------------------------------------------|
    --7--9--5--7--9--5--7--9------------------------------|
    -------------------------7----------------------------|
    ------------------------------------------------------|
    ------------------------------------------------------|…
  • Intro
    
    Gb|-------------| (x4)
    Db|-------------|
    Ab|-------------|
    Db|0-345---3-5--|
    
    Verse
    
    Gb|-----------------------------------------| (x3)
    Db|-----------------------------------------|
    Ab|0-000-000-1-111-111----------------------|
    Db|--------------------3-333-333-5-555-555\-|
    
    Gb|------------------------------------------------------|
    Db|------------------------------------------------------|
    Ab|0-000-000-1-111-11/15-151515-151515-15-151515-151515\-|
    Db|------------------------------------------------------|
    
    Chorus…
  • Intro
    E------------------------|
    B------------------------|
    G------------------------|
    D------------------------|
    A------------------------|
    E--3-1-h3-1-h3-1-h3-1-h3-|
    
    E---------------------------------------------------------------------|
    B-----------------------------------5-5-5-5---------------------------|
    G------------------5-5-5-5-5-5-5-5--5-5-5-5--3-3-3-3------------------|
    D-5-5-5-5-5-5-5-5--5-5-5-5-5-5-5-5--3-3-3-3--3-3-3-3--5-5-5-5-5-5-5-5-|
    A-5-5-5-5-5-5-5-5--3-3-3-3-3-3-3-3-----------1-1-1-1--5-5-5-5-5-5-5-5-|
    E-3-3-3-3-3-3-3-3-------------------------------------3-3-3-3-3-3-3-3-|
    
    E---------------------------------------------------------------------|
    B---------------------------------------------------------------------|
    G--X-X-X-5--8-8--10-10--X-X-X-5--8-8--10-10--X-X-X-5--8-8-10-10-------|
    D--X-X-X-5--8-8--10-10--X-X-X-5--8-8--10-10--X-X-X-5--8-8-10-10-------|
    A--X-X-X-3--6-6---8--8--X-X-X-3--6-6--10--8--X-X-X-3--6-6--8--8-------|
    E---------------------------------------------------------------------|
    
    E----------------------------------------------------------------|
    B----------------------------------------------------------------|
    G--8-8-8-8-10-10-10-10-------------------------------------------|
    D--8-8-8-6-10-10-10-10-------------------------------------------|
    A--6-6-6-6--8--8--8--8-------------------------------------------|
    E-----------------------h3-1-h3-1-h3-1-h3-1-h3-1-h3-1-h3-1-h3-1--|…
  • Verse 
    
    G|-----------|------------|-----------|---------|
    D|-----------|------------|-----------|---------|
    A|0-100-10---|0-100-10-33-|0-100-10---|0-100-100|
    D|--------55-|------------|--------55-|---------|
    
    
    Chorus
    
    G|------------------|----------------------|
    D|------------------|-----------------(x4)-|
    A|33333333-555550-0-|----------------------|
    D|------------------|7--5h7--5h7-101010----|
    
    G|------------------|
    D|------------------|
    A|33333333-55555555-|
    D|------------------|
    
    G|-----------|------------|-----------|---------|
    D|-----------|------------|-----------|---------|
    A|0-100-10---|0-100-10-33-|0-100-10---|0-100-100|
    D|--------55-|------------|--------55-|---------|
    
    G|------------------|
    D|------------------|
    A|33333333-55555555-|
    D|------------------|
    
    G|-----------|------------|
    D|-----------|------------|
    A|0-100-10---|0-100-10-33-|
    D|--------55-|------------|
    
    Verse
    
    G|-----------|------------|-----------|---------|
    D|-----------|------------|-----------|---------|
    A|0-100-10---|0-100-10-33-|0-100-10---|0-100-100|
    D|--------55-|------------|--------55-|---------|
    
    Chorus
    
    G|------------------|----------------------|
    D|------------------|-----------------(x4)-|
    A|33333333-555550-0-|----------------------|
    D|------------------|7--5h7--5h7-101010----|
    
    G|------------------|
    D|------------------|
    A|33333333-55555555-|
    D|------------------|
    
    G|-----------|------------|-----------|---------|
    D|-----------|------------|-----------|---------|
    A|0-100-10---|0-100-10-33-|0-100-10---|0-100-100|
    D|--------55-|------------|--------55-|---------|
    
    G|------------------|
    D|------------------|
    A|33333333-55555555-|
    D|------------------|
    
    G|-----------|------------|
    D|-----------|------------|
    A|0-100-10---|0-100-10-33-|
    D|--------55-|------------|
    
    Bridge
    
    G|----------------|----------|…
  • GTR I - Standard Drop B Tuning "Chad Kroeger" (e,B,G,D,A,B)
    GTR II - Standard Drop B Tuning "Ryan Peake" (e,B,G,D,A,B)
    
    Intro
    
      GTR I
    e|-------------------------------------------------|
    B|-------------------------------------------------|
    G|-------------------------------------------------|
    D|-------------------------------------------------|
    A|-------------------------------------------------|
    B|/12-----0-----------9-10-----9-10--9-10--9-10/14-|…
  • chords used:
    E - x799xx
    G - 355XXX
    A - 577xxx
    C - x355xx
    D - x577xx
    
    verse:
    E|---------------------|
    B|---------------------|
    G|------------------12-|
    D|----11-------11------|
    A|-0-------0-0----0----|
    E|---------------------|
    
    lead:
    E|------------------------------------|
    B|-----------------------------12h14~-|
    G|-12h14p12h14---14h16p14h16----------|
    D|------------------------------------|
    A|------------------------------------|
    E|------------------------------------|
    
    chorus:play…
  • Intro
    |--------------------------------------|
    |--------------------------------------|
    |-----2-----2----2-------2-----2----2--|
    |--------------------------------------|
    |-0-0---0-0---0------------------------|
    |--------------------3-3---3-3---3-—---|
    
    
    |--------------------------------------|----------|
    |--------------------------------------|--3-3-----|
    |----2-----2----2-------2-----2----2---|--2-2-----|
    |--------------------------------------|--0-0—-5--|
    |--------------------------------------|--0-0—-5--|
    |-0-0---0-0---0------5-5---5-5---5-----|--0-0—-5--|
    
    
    chorus
    |------------------------------------------|----------------|---------|
    |-----------------------------3-3-3--------|----------------|---------|
    |--2-2-2----------------------2-2-2—-------|----------------|---------|
    |--2-2-2—-5------3-3-3—-5-----0-0-0—-5--—--|-5-5-5—-5-5-----|-5-5-5-2-|
    |--0-0-0—-3(3x)--3-3-3—-3(3x)--------3(3x)—|-5-5-5—-3-3(3x)-|-3-3-2-0-|
    |----------------3-3-3---------------------|-5-5-5----------|---------|
    
    |------------------|
    |------------------|
    |------------------|
    |--2---3---0---5---|
    |--0---3---0---5---|
    |------3---0---5---|
    
    
    |------------------------------------------|
    |----------------------3-3-3-3-------------|
    |----------------------2-2-2-2-------------|
    |--2-2-2-2---3-3-3-3—--0-0-0-0---5-5-5-5---|
    |--0-0-0-0---3-3-3-3-------------5-5-5-5---|
    |------------3-3-3-3-------------5-5-5-5---|
    
    Outro
    |-----|
    |--3--|
    |--2--|
    |--0--|
    |--0--|
    |--0--|…
  • Tuning    : Dropped-D (DADGBE)
    
    
    intro-----------------------------------------------------------------------
    ----------------------------------------------------------------------------
    ----------------------------------------------------------------------------
    --------------------------------------------------5-5-5-5--3-5-5/7/5-3-0----
    ----10-10-10----9-x-9--------------10---------12--5-5-5-5--3-5-5/7/5-3-0-12/
    -----0--0--0----0-x-0---12-10-9-10----10-9-10-----5-5-5-5--3-5-5/7/5-3-0-12/
    
    verse
    -------|----------------------------|-------|------|-------
    -------|----------------------------|-------|------|-------
    -------|----------------------------|-------|------|-------
    ----0--|----------------------------|-------|--5/--|-------
    ----0--|------3-----5------3--------|--12/--|--5/--|--12/--
    ----0--|--3-4---3-4----3-4---3-4-0--|--12/--|--5/--|--12/--
    
    pre-chorus
    ---------------------------------
    ---------------------------------
    ----7--10--11--12---3-4-5---3----
    ----7--10--11--12---3-4-5---3----
    ----7--10--11--12---3-4-5---3----
    
    chorus
    --------------------------------------------------------------
    --------------------------------------------------------------
    --------------------------------------------------------------
    --------------------------------------------------------------
    --------3-----5------3------------3-----5----0-0--0--0-0-0----
    ----3-4---3-4----3-4---3-4-0--3-4---3-4---0--0-0--0--0-0-0----
    
    bridge
    --------------------------------------------------------------------------------
    --------------------------------------------------------------------------------
    --------------------------------------------------------5-7--------------5-7----
    ----7--10--11--12--3-5--7--10--11--12--3-5--0--3--4--5--5-7--0--3--4--5--5-7----
    ----7--10--11--12--3-5--7--10--11--12--3-5--0--3--4--5--3-5--0--3--4--5--3-5----
    ----7--10--11--12--3-5--7--10--11--12--3-5--0--3--4--5-------0--3--4--5---------
    
    -------------------------------------------
    -------------------------------------------
    ----------------5-7--------------5-7-7/----
    ----0--3--4--5--5-7--0--3--4--5--5-7-7/----
    ----0--3--4--5--3-5--0--3--4--5--3-5-5/----
    ----0--3--4--5-------0--3--4--5------------…
  • E standard   Low to High: (E,A,D,G,B,e)
    
    Guitar 1: Acoustic Rhythm
    Guitar 2: Distorted Rhythm
    Guitar 3: Distorted Lead w/Slide
    
    Intro:
    0:00
    
    Guitar 1
    1---------------------------------------------------------------------|
    2---------------------------------------------------------------------|
    3---------------------------------------------------------------------|
    4-----------5-x-xx-----------5-x-xx-----------5-x-xx-----------5-x-xx-|
    5--5h77---5---x-xx--5h77---5---x-xx--5h77---5---x-xx--5h77---5---x-xx-|
    6-------3-----x-xx-------3-----x-xx-------3-----x-xx-------3-----x-xx-|
    
    Guitar…
  • NOTE: The bridge is a lot of tremelo and wah, just improv it, the notes are 
    there.
    
    GTR I - Drop C Tuning "Chad Kroeger" (d,A,F,C,G,C)
    GTR II - Drop C Tuning "Ryan Peake" (d,A,F,C,G,C)
    GTR III - Drop C Tuning "Chad…
  • INTRO
    Bm  G6  Dsus2  A
    
    VERSE1
                  Bm                        G6
    Just one more moment, that's all that's needed
                 Dsus2               A
    Like wounded soldiers in need of healing
               Bm…
  • Chords: A, E, F#m, D9, D
    
    F#m 
    -2
    -2
    -2
    -4
    -4
    -2
    
    D9 
    -0
    -3
    -2
    -0
    -2
    -x
    
    Chorus:
    
    A                    E
    Don't let it end
    
                          F#m
    Don't let it end
    
                       D9…
  • Tuning: Drop D (D,A,D,G,B,E)
    
    Intro/main riff/verse
    |-------------------------------------------------------------|
    |-------------------------------------------------------------|
    |----------10-10-10—-9-------10-----------------10-10-10—-9---|
    |-----------x—-x—-x—-x--------x------------------x—-x-—x—-x---|
    |-----------8—-8—-8—-7--------8------------------8—-8—-8-—7---|
    |--0-0-0-0---------------0-0-----0-0-0---0-0-0-0--------------|…
  • Intro -
    D|-------------------------------------------------------------|
    A|-3--------6--------------------------------------------------|
    F|-2---x-x--5--------------------------------------------------|
    C|-0---x-x--3----------3-------5----10-------------------------|
    G|-0---x-x--3--3-5-3-5---5-3---5----10--8-10-8-10brb-8---------|
    C|-0---x-x-—3------------------5----10-------------------------|
    
    Verse:
    D||--5-5-------8-8---------------5-5----------------------------|
    A||------6---6-----5-6-5-6-5-6-8-----6---8-8-5-6-5--------------|
    F||--------7---------------------------7-----------7-5-7--------|
    C||-------------------------------------------------------------|
    G||-------------------------------------------------------------|
    C||-------------------------------------------------------------|
    
    Then…
  • Main Riff:
    
    D#|---5-7-------------5-7-----------|
    A#|-7-----7-5-7-5---7-----7-5-7-5-5-|
    F#|---------------7-----------------|
    C#|---------------------------------|
    G#|---------------------------------|
    D#|---------------------------------|
    
    
    -----INTRO:
    
    Main…
  • I Miss You So So I Do
    I Miss You So So I Do
    I Miss You So So I Do
    I Miss You So
    
    
    
      D            A                 Bm       G
    I Just Woke Up From A Dream Today
    D                A                     Bm      G
    Time…
  • Intro part 1 (really gritty clean tone. Turn your treble way up)
    e------|---------------------------------|
    B------|---------------------------------|
    G------|---------------------------------|
    D------|---------------------------------|
    A--/12-|0-0----3--0----3--0----3--0----5-|
    D--/12-|0-0-/5----0-/5----0-/5----0-/5---|
    
    Intro…
  • Gtr I (D A D G B E) - 'Electric Guitar (clean)'
    Gtr II (D A D G B E) - 'Electric Guitar (clean)'
    
    
     Intro
      Q=80
     4/4
      Gtr I
      Q  Q   Q   Q     Q   Q   S  S  E  Q
    |---------------|----------------------|
    |---------------|----------------------|
    |---------------|----------------------|
    |-0--0---0---0--|--0---0---0--0--0--0--|
    |-9--9---9---9--|-10--10--10-10-10-10--|
    |-0--0--10--10--|--9---9---8--8--8--8--|
    |
    |…
  • Verse and Pre-chorus
    E|-0----0----0-0-----0-----0-0-0--0-|-0----0----0-0-----0-----0-0-0--0-|
    B|-0----0----0-0-----0-----0-0-0--0-|-0----0----0-0-----0-----0-0-0--0-|
    G|-9----9----9-9-----9-----9-9-9--8-|-8----8----8-8-----8-----8-8-8--0-|
    D|-9----9----9-9-----9-----9-9-9--9-|-9----9----9-9-----9-----9-9-9--0-|
    A|-7----7----7-7-----7-----7-7-7--9-|-9----9----9-9-----9-----9-9-9--0-|
    E|-0----0----0-0-----0-----0-0-0--7-|-7----7----7-7-----7-----7-7-7----|
    
    
    E|-0----0-------0--------0----0--0--0-----0-|
    B|-0----0-------0--------0----0--0--0-----0-|
    G|-4----4-------4--------4----4--4--4-----4-|
    D|-5----5-------5--------5----5--5--5-----5-|
    A|-5----5-------5--------5----5--5--5-----5-|
    E|-3----3-------3--------3----3--3--3-----3-|
    
    E|-0-----0------0--0------0----0--0--0--0--0-|
    B|-0-----0------0--0------0----0--0--0--0--0-|
    G|-6-----6------6--6------6----6--6--6--9--9-|
    D|-7-----7------7--7------7----7--7--7--9--9-|
    A|-7-----7------7--7------7----7--7--7--7--7-|
    E|-5-----5------5--5------5----5--5--5--0--0-|
    
    Chorus
    
    E|-0----0------0---0-|-0----0-----0---0--|
    B|-0----0------0---0-|-0----0-----0---0--|
    G|-9----9------9---8-|-8----8-----8---11-|
    D|-9----9------9---9-|-9----9-----9---12-|
    A|-7----7------7---9-|-9----9-----9---12-|
    E|-0----0------0---7-|-7----7-----7---10-|
    
    Middle…
  • e|-------------------------------------|
    B|-------------------------------------|
    G|-------------------------------------|
    D|-2-2x2-2-2x2-2-2x2-5-5x5-5-5x5-5-5x5-|
    A|-2-2x2-2-2x2-2-2x2-5-5x5-5-5x5-5-5x5-|
    D|-2-2x2-2-2x2-2-2x2-5-5x5-5-5x5-5-5x5-|
    
    e|----------------------------------------------|
    B|----------------------------------------------|
    G|----------------------------------------------|
    D|-2-2x2-2-2x2-2-2x2-10-10x10-10-10x10-10-10x10-|
    A|-2-2x2-2-2x2-2-2x2-10-10x10-10-10x10-10-10x10-|
    D|-2-2x2-2-2x2-2-2x2-10-10x10-10-10x10-10-10x10-|
    Pre…
  • Intro
    e|-------------------------------------|
    b|-------------------------------------|
    g|--------0-----0--------0-----0-----0-|x6
    d|------0-----0--------0-----0-----0---|
    a|-------------------------------------|
    d|-0-1------3-----/7\5-----5-----5-----|
    
    Verse…
  • Intro
    
    G|-------|
    D|-------|
    A|-------|
    D|5/15\5-|
    
    Verse
    
    G|------------------------------| (x8)
    D|------------------------------|
    A|------------------------------|
    D|88-5--8h1010-5--x88-5--3--10--|
    
    Chorus
    
    G|-----------------|----------------|…
  • Tuning: Drop D
    
    
       Intro
    e|--------------------------------------|
    B|--------------------------------------|
    G|---------7--------------------------7-|
    D|-0-4-3-0-7---0--4-3-0--4-5--0-4-3-0-7-|
    A|-0-4-3-0-5---0--4-3-0--4-5--0-4-3-0-5-|
    D|-0-4-3-0-----0--4-3-0--4-5--0-4-3-0---|…
  • Chords: B x35553
            D x57775
            G 355433
            A 577655
            E 022100
    
    Verse 1
                                     B
    There's clothes all over the floor
                                      D
    don't remember…
  • tuning:
    CGCFAD
    
    intro\verse\under solo
    |------------------------------------------|
    |------------------------------------------|
    |------------------------------------------|
    |------------------------------------------|
    |--0~--0-0-0--0-0-0--0---0~---------5~-----|
    |--0~--0-0-0--0-0-0--0---0~----------------|
    |--0~--0-0-0--0-0-0--0---0~---0h3h5--------|…
  • Intro 
    
    G|---------|-----------------------------------------|
    D|---------|------------------------------------(x4)-|
    A|33333333-|00000000-33333333----------55555555------|
    D|---------|------------------55555555---------------|
    
    Verse
    
    G|------------------------|…
  • tuning: drop D
    
    Intro
    
    E|-------------------------|-------------------------|----------------|
    B|-------------------------|-------------------------|----------------|
    G|-------------------------|-------------------------|-----5---7------|
    D|-----------------7---7---|-----------------7---7---|----------------|
    A|-----7-----8-----------8-|-----7-----8-----------8-|----------------|
    D|-0-0---0-0---0-0---0-----|-5-5---5-5---5-5---5-----|-8-8---8---8----|
    
    E|----------------|---------------------------|
    B|----------------|---------------------------|
    G|----------------|------7---5----------------|
    D|-------5---7----|-------------------7-------|…
  • Intro
    
    G|-----------|--------| (x7, except the slide down from the G)
    D|-----------|--------|
    A|------3-5--|---3----|
    D|5\-0-------|0----3--|
    
    G|--------|------|
    D|--------|------|
    A|---3-5--|------|
    D|0-------|0-----|
    
    Pre-Verse
    
    G|----------|…
  • Tuning - Dropped D down 1 whole step
    Riff:
    D--------------------------------------|
    A--------------------------------------|
    F--------------------------------------|
    C--------------------------------------|
    G-------------------------------3h5----|
    C---0---0-0-3h5--0---0-3h5--0-0--------|
    
    D------------------------------------|
    A------------------------------------|
    F------------------------------------|
    C------------------------------------|
    G---5-5-5-5-------------------3h5----|
    C---0-0-0-0-3h5-0--0-3h5--0-0--------|
    
    play…
  • Dont come in until 0:14
    
    G|--------|
    D|--------|
    A|--------|
    D|3-------|
    
    Intro 
    
    G|------------------------------|
    D|-----------(x3)---------------|
    A|------------------------------|
    D|00-000-03--------00-000-03033-|
    
    Verse…
  • Tuning: Standard EADGBe
    
    Chords used:
    Eb - x68886
    G# - 466544
    Fm - 133111
    B -  x24442
    C# - x46664
    
    
    Intro: Eb--G#-- x2
    
    
    Verse 1:
             Eb
    I'm in a bar full of bikers
    And a handful of junkies
         G#
    It's…
  • Tuning: Dropped D
    
    
    Intro
    
    e--------------------------------------------------------------------|
    B--------------------------------------------------------------------|
    G---------x-5--------------------------5-5-5-------------------------|
    D---x-3---x-5--------------------------5-5-5-------------x-5--x-3----|
    A---x-3---x-3------8-5-5-8-5---8-5-8-5-3-3-3--8-5-5-8-5--x-5--x-3----|
    D---x-3------------0-0-0-0-0---0-0-0-0--------0-0-0-0-0--x-5--x-3----|
    
    Verse:
    
    e---------------------------------------------------|
    B---------------------------------------------------|
    G-----------------------------------------5-5-------|
    D----------------------5-5-5--------------5-5-5-5---|
    A---8-5-5-8-5--8-5-8-5-3-3-3---8-5-5-8-5--3-3-5-5---|
    D---0-0-0-0-0--0-0-0-0---------0-0-0-0-0------5-5---|
    
    Chorus:
    
    e-------------------------------------------------------|
    B-------------------------------------------------------|
    G-----------------------5-5-5---------------x-5---x-5---|
    D-----------------------5-5-5---------------x-5---x-5---|
    A---3-5-5-3-5---3-5-5-3-5-3-3---3-5-5-3-5---x-3---x-3---|
    D---0-0-0-0-0---0-0-0-0---------0-0-0-0-0---------------|
    
    Interlude:
    
    e----------------------------------------------------|
    B----------------------------------------------------|
    G-----------------------5-----------------------5----|
    D-----------------------5-----------------------5----|
    A------5-3-0-3--5-3-0-3-3------5-3-0-3--5-3-0-3-3----|
    D----0-0-0-0-0--0-0-0-0------0-0-0-0-0--5-3-0-3------|…
  • Intro
    
    G|----|--------------------------------| (x4)
    D|----|--------------------------------|
    A|----|--------------------------------|
    D|13\-|13333-5h66-5h666-1111-xxxxxxxxxx|      
    
    Verse (immediately play)
    
    G|--------------------|…
  • Tuning: Drop D tuning
    
    
    Intro/outro
    e|---------------------------|
    B|---------------------------|
    G|---------------------------|
    D|--7-7---7-7---7-7---7-7----|
    A|--7-7---7-7---7-7---7-7----|
    D|--7-7---7-7---7-7---7-7----|
    
    Verse…
  • Tuning: Standard eADGBe
    
    Chords used:
    Dm -  xx0231
    Bb - x13331
    F -   133211
    C -   x32010
    Gm -  355333
    C/E - 032xxx
    
    
    Intro: Dm---F- x2
    
    
    Verse 1:
    Dm
    Take one of those
    and two of these
    Then watch the walls
    begin…
  • Intro 
    
    G|---|
    D|---|
    A|---|
    D|2--|
    
    G|------------|------------| (x2)
    D|---4h5h42-5-|---4h5h4----|
    A|------------|------------|
    D|44----------|44-------2--|
    
    Verse
    
    G|------------|----------| -----------|
    D|------------|------(x2)|------------|
    A|------------|----------|------------|
    D|44-4h5h42-5-|44-0-2----|44-4h5h42---|
    
    Pre-Chorus
    
    G|------------------------------------|…
  • Tuning: Standard EADGBe
    
    Chords used:
    Cm - x35543
    G# - 466544
    Eb - x68886
    Bb - x13331
    Dm - xx0231
    Fm - 133111
    C# - x46664
    B -  x24442
    
    
    Intro: Cm--Bb, 
    
    Bass: Cm-G#-Eb--
    
    Distortion: Cm-G#-Eb-Dm- 
    
    
    Verse…
  • Intro (before he starts to sing of course)
    E---------------------------------------|I
    B---------------------------------------|I
    G-------------------------------I-------|  x4
    D----------------5-3--------------------|I
    A-----------0h3-------5-3-(0)-----------|I
    E---------------------------------------|I
    
    verse
    E--------------------------------------------------------------------------|
    B--------------------------------------------------------------------------|
    G------------------------------------------------5-3-2------------5-3-2----|
    D-------5-3------------------5-3-------------0h3------3-0-----0h3------3-0-|
    A---0h3------5-3-(0)-----0h3------5-3-(0)----------------------------------|
    E--------------------------------------------------------------------------|
    
    --------------------|
    --------------------|
    -------5-3----------|
    ---0h3------5-3-----|(0)…
  • Intro
    |-----------2/5----0-----------------|
    |-----------------3------0-----------|
    |-----------------------3------------|
    |-0---0----------------------0---0---|  x 4 miss out the bottom D's the…
  • Intro
    
    F|-----------------| 
    C|----------(x7)---|
    G|-----------------|
    C|0-00-00007-----0-|
    
    Pre-Verse
    
    F|---------| (x4)
    C|---2-00--|
    G|---------|
    C|24-------|
    
    Verse
    
    F|----------| (x8)
    C|4-4-4-----|
    G|-------35-|
    C|----------|
    
    Chorus
    
    F|---------|…
  • main riff - guitar one
    E|------------------------------------------------|
    B|------------------------------------------------|
    G|------------------------------------------------|
    D|------------------------------------------------|
    A|-5h7-7--5h7-7--5h7-7--5h7-7---------------------|
    D|-5h7-7--5h7-7--5h7-7--5h7-7---------------------|
    
    guitar…
  • INTRO
    e|----------------------------------------------------------------------|
    B|----------------------------------------------------------------------|
    G|--5-----7--5----------------------------------------------------------|
    D|--5--5--7--5----------------------------------------------------------|
    A|--3--5--5--3----------------------------------------------------------|
    E|-----3----------------------------------------------------------------|
    
    
    e|----------------------------------------------------------------------|
    B|----------------------------------------------------------------------|
    G|----------------------------------------------------------------------|
    D|----------------------------------------------------------------------|
    A|--5--7--5--7--5--7--5--7--5--7--5--7--5-------------------------------|
    E|--0--0--0--0--0--0--0--0--0--0--0--0--0--7----------------------------|
    
    e|----------------------------------------------------------------------|
    B|----------------------------------------------------------------------|
    G|----------------------------------------------------------------------|
    D|-----------------------------------------7\-5-------------------------|
    A|--5--7--5--7--5--7--5--7--5--7--5-----5--------7\-5-------------------|
    E|--0--0--0--0--0--0--0--0--0--0--0--7----------------------------------|
    
    e|----------------------------------------------------------------------|
    B|----------------------------------------------------------------------|
    G|----------------------------------------------------------------------|
    D|----------------------------------------------------------------------|
    A|--5--7--5--7--5--7--5--7--5--7--5--7--5-----5-------------------------|
    E|--0--0--0--0--0--0--0--0--0--0--0--0--0--7--0-------------------------|
    
    e|----------------------------------------------------------------------|
    B|----------------------------------------------------------------------|
    G|--5-----7--5----------------------------------------------------------|
    D|--5--5--7--5----------------------------------------------------------|
    A|--3--5--5--3----------------------------------------------------------|
    E|-----3----------------------------------------------------------------|
    
    VERSE
    
    e|----------------------------------------------------------------------|
    B|----------------------------------------------------------------------|
    G|----------------------------------------------------------------------|
    D|-----------9-----------9-----------9--7--7----------------------------|
    A|-----------7-----------7-----------7--5--5----------------------------|
    E|--0--0--0-----0--0--0-----0--0--0-------------------------------------|
    
    e|----------------------------------------------------------------------|
    B|----------------------------------------------------------------------|
    G|----------------------------------------------------------------------|
    D|-----------9-----------9-----------9--5--7----------------------------|
    A|-----------7-----------7-----------7--3--5----------------------------|
    E|--0--0--0-----0--0--0-----0--0--0-------------------------------------|
    
    e|----------------------------------------------------------------------|
    B|----------------------------------------------------------------------|
    G|----------------------------------------------------------------------|
    D|-----------9-----------9-----------9--12--9---------------------------|
    A|-----------7-----------7-----------7--10--7---------------------------|
    E|--0--0--0-----0--0--0-----0--0--0-------------------------------------|
    
    e|----------------------------------------------------------------------|
    B|----------------------------------------------------------------------|
    G|--5-----7--5----------------------------------------------------------|
    D|--5--5--7--5----------------------------------------------------------|
    A|--3--5--5--3----------------------------------------------------------|
    E|-----3----------------------------------------------------------------|
    
    
    CHORUS
    e|----------------------------------------------------------------------|
    B|----------------------------------------------------------------------|
    g…
  • Guitar 1 (flanger)(Palm Muted)
    
    D |--------------------------------------------|
    A |--------------------------------------------|
    F |--------9---7---7-9-------9---7---7-9-------|
    C |------9---9---9---------9---9---9-----------|
    G…
  • Rest for intro, come in at pre-verse
    
    G|---------------| (x4)
    D|---------------|
    A|---------------|
    D|0---00--77-96--|
    
    Rest for guitar part, then come in at next verse
    
    G|---------------| (x4)
    D|---------------|
    A|---------------|
    D|0---00--77-96--|
    
    Chorus
    
    G|----------|…
  • Verse:
    e|-------------------------------------------------------------------------|
    B|-------------------------------------------------------------------------|
    G|-------------------------------------------------------------------------|
    D|-------------------------------------------------------------------------|
    A|---3h5------3h5------3h5------3h5------3h5------3h5------3h5------3h5----|
    D|-------0-0------0-0------0-0------0-0------5-5------5-5------5-5------5-5|
    
    e|-----------------------------------------------------------------------------|
    B|-----------------------------------------------------------------------------|
    G|-----------------------------------------------------------------------------|
    D|-----------------------------------------------------------------------------|
    A|---3h5-------3h5-------3h5-------3h5-------3h5------3h5------3h5------3h5----|
    D|-------3-3-------3-3-------5-5-------5-5-------0-0------0-0------0-0------0-0|
    (Play…
  • Just listen 2 it n it will make sense
    e-----------------------------------------------------|
    b-----------------------------------------------------|
    g-----------------------------------------------------|
    d-2-2---0-2-2---0-2-2-----0-2-3-2-3-2-----2-2---0-2-2-|
    a-2-2---0-2-2---0-2-2-----0-2-3-2-3-2-----2-2---0-2-2-|
    d-2-2---0-2-2---0-2-2-----0-2-3-2-3-2-----2-2---0-2-2-|
    
    
    e-----------------------------------|
    b-----------------------------------|
    g-----------------------------------|
    d-0-5-5---0-5-5---0-5-5-------------|
    a-0-5-5---0-5-5---0-5-5-------------|
    d-0-5-5---0-5-5---0-5-5?0-4-5-4-5---|
    
    
    pre…
  • e------------------------------------------|
    B------------------------------------------|
    D------------------------------------------|
    G-2-2-2-2-2-2-2-2-2-2-2-2-2-2-2-2-2-2-2-2--|
    A------------------------------------------|
    E--0-0-0-0-0-0-0-0-0-0-0-0-0-0-0-0-0-0-0-0-|…
  • C#||intro-----------------|-------------------------|----------------------|
    G#||----------------------|-------------------------|----------------------|
    E ||-------------------7--|-------------------------|----------5----------7|
    B…
  • Dropped D (D A D G B e)
    
    Intro
    e|---------------------------------------------------------------------------|
    B|---------------------------------------------------------------------------|
    G|-7/87-7/87---7/87-5/87-------7/87-7/87-x-7/87-5---------------------|
    D|-7/87-7/87---7/87-5/87—-3p0--7/87-7/87-x-7/87-5---------------------|
    A|-5/65-5/65---5/65-3/65—-3p0--5/65-5/65-x-5/65-3---------------------|
    D|----------------------------3p0--------------------------------------------|
    
    Bridge…
Наверх