Аккорды Nightwish - Bare Grace Misery

Добавлено: @romashka
Дата добавления: 07 Марта 2024г.
Рейтинг:
0.0
Просмотров: 43
Транспонировать - +
[G----------------------------------------------
D----------------------------------------------
A-------------------------5--5-3---------------
E--------------------5--5---------5--5-5--5-5--

-------------------------------------------------------------
-------------------------------------------------------------
----------------------------------------5--5-3---------------
--1--1-1-1-1-1-1-1-1-1-1-1-1-1-1---5--5---------5--5-5--5-5--

----------------------------------------------------------------------------
----------------------------------------------------------------------------
----------------------------------------0-----------------------------------
--0------------------1-------------------------------------1----------------

---------------------------------------------------------------
---------------------------------------------------------------
-------------------------------0-0-0-0-0-0-0-0-0-0-0-0-0-0-0-0-
--3--3-3--3-3--3-3--3-3--3-3-----------------------------------

--------------------------------------------------------------------
--------------------------------------------------------------------
--3-3-3-3-3-3-3-3-------------------0-0-0-0-0-0-0-0-0-0-0-0-0-0-0-0-
------------------3-3-3-3-3-3-3-3-----------------------------------

--------------------------------------------------------------------
--------------------------------------------------------------------
------------------5-5-5-5-5-5-5-5---0-0-0-0-0-0-0-0-0-0-0-0-0-0-0-0-
--0-0-0-0-0-0-0-0---------------------------------------------------

--------------------------------------------------------------------
--------------------------------------------------------------------
--3-3-3-3-3-3-3-3-------------------0-0-0-0-0-0-0-0-0-0-0-0-0-0-0-0-
------------------3-3-3-3-3-3-3-3-----------------------------------

-------------------------------------------------------------------------
-------------------------------------------------------------------------
------------------5-5-5-5-5-5-5-5---0------------------3-----------------
--0-0-0-0-0-0-0-0-----------------------------------------------3--------

-------------------------------------------------------------------
-------------------------------------------------------------------
--0---------------------------5---------------5--5-3---------------
---------------------0-------------------5--5---------5--5-5--5-5--

-------------------------------------------------------------
-------------------------------------------------------------
----------------------------------------5--5-3---------------
--1--1-1-1-1-1-1-1-1-1-1-1-1-1-1---5--5---------5--5-5--5-5--

----------------------------------------------------------------------------
----------------------------------------------------------------------------
----------------------------------------0-----------------------------------
--0------------------1-------------------------------------1----------------

------------------------------------------------------------------
------------------------------------------------------------------
-------------------------------0----------------------------------
--3--3-3--3-3--3-3--3-3--3-3--------------------------------------

--------------------------------------------------------------------
--------------------------------------------------------------------
--0-0-0-0-0-0-0-0-0-0-0-0-0-0-0-0---3-3-3-3-3-3-3-3-3-3-3-3-3-3-3-3-
--------------------------------------------------------------------

--------------------------------------------------------------------
--------------------------------------------------------------------
--0-0-0-0-0-0-0-0-0-0-0-0-0-0-0-0---3-3-3-3-3-3-3-3-3-3-3-3-3-3-3-3-
--------------------------------------------------------------------

--------------------------------------------------------------------
--------------------------------------------------------------------
--0-0-0-0-0-0-0-0-0-0-0-0-0-0-0-0---3-3-3-3-3-3-3-3-3-3-3-3-3-3-3-3-
--------------------------------------------------------------------

--------------------------------------------------------------------
--------------------------------------------------------------------
--0-0-0-0-0-0-0-0-0-0-0-0-0-0-0-0---3-3-3-3-3-3-3-3-3-3-3-3-3-3-3-3-
--------------------------------------------------------------------

------------------------------------------------------------------------
------------------------------------------------------------------------
--5------------------3----------------------------------0-0-0-0-0-0-0-0-
----------------------------------------1-1-1-1-1-1-1-1-----------------

--------------------------------------------------------------------
--------------------------------------------------------------------
--5-5-5-5-5-5-5-5-5-5-5-5-5-5-5-5---0-0-0-0-0-0-0-0-0-0-0-0-0-0-0-0-
--------------------------------------------------------------------

--------------------------------------------------------------------
--------------------------------------------------------------------
--3-3-3-3-3-3-3-3-3-3-3-3-3-3-3-3---0-0-0-0-0-0-0-0-0-0-0-0-0-0-0-0-
--------------------------------------------------------------------

------------------------------------------------------------
------------------------------------------------------------
--3-3-3-3-3-3-3-3-3-3-3-3-3-3-3-3---------------------------
------------------------------------0-0--0-0--0-0--0-0------

----------------------------------------------------------------------------
----------------------------------------------------------------------------
----------------------------------------------------------------------------
--0-0--0-0--0-0--0-0--------0-0--0-0--0-0--0-0--------0-0--0-0--0-0---------

--------------------------------------------------------------------
--------------------------------------------------------------------
--0-0-0-0-0-0-0-0-0-0-0-0-0-0-0-0---3-3-3-3-3-3-3-3-----------------
----------------------------------------------------3-3-3-3-3-3-3-3-

--------------------------------------------------------------------
--------------------------------------------------------------------
--0-0-0-0-0-0-0-0-0-0-0-0-0-0-0-0-------------------5-5-5-5-5-5-5-5-
------------------------------------0-0-0-0-0-0-0-0-----------------

--------------------------------------------------------------------
--------------------------------------------------------------------
--0-0-0-0-0-0-0-0-0-0-0-0-0-0-0-0---3-3-3-3-3-3-3-3-----------------
----------------------------------------------------3-3-3-3-3-3-3-3-

--------------------------------------------------------------------
--------------------------------------------------------------------
--0-0-0-0-0-0-0-0-0-0-0-0-0-0-0-0-------------------5-5-5-5-5-5-5-5-
------------------------------------0-0-0-0-0-0-0-0-----------------

-------------------------------------------------------------
-------------------------------------------------------------
-------5--5-3------------------------------------------------
--5--5---------5--5-5--5-5----1--1-1-1-1-1-1-1-1-1-1-1-1-1-1-

------------------------------------------------------------------
------------------------------------------------------------------
-------5--5-3-----------------------------------------------------
--5--5---------5--5-5--5-5----0------------------1----------------

-------------------------------------------------------------------
-------------------------------------------------------------------
--0----------------------------------------------------------------
---------------------1------------------3--3-3--3-3--3-3--3-3--3-3-

-------------------------------------------------------
-------------------------------------------------------
--0----------------------------------------------------
-------------------------------------------------------]
_________
Keyboard 3.
Tab by T.P

[E------------------------------------------------------------------------
B------------------------------------------------------------------------
G------------------------------------------------------------------------
D------------------------------------------------------------------------
A------------------------------------------------------------------------
E------------------------------------------------------------------------

------------------------------------------------------------------------
------------------------------------------------------------------------
------------------------------------------------------------------------
------------------------------------------------------------------------
------------------------------------------------------------------------
------------------------------------------------------------------------

--------------------------12-17-------12-17-------12-17-12----12-17-
-----------------------13----------13----------13----------13-------
--------------------14----------14----------14----------------------
--------------------------------------------------------------------
--------------------------------------------------------------------
--------------------------------------------------------------------

--15----15-20-15----15-20-15----15-20-15----15-20-
-----17----------17----------15----------15-------
--------------------------------------------------
--------------------------------------------------
--------------------------------------------------
--------------------------------------------------

--------12-17-------12-17-------12-17-12----12-17-
-----13----------13----------13----------13-------
--14----------14----------14----------------------
--------------------------------------------------
--------------------------------------------------
--------------------------------------------------

--12----12-17-12----12-17-17----17-22-17----17-22-
-----12----------12----------19----------19-------
--------------------------------------------------
--------------------------------------------------
--------------------------------------------------
--------------------------------------------------

--------12-17-------12-17-------12-17-12----12-17-
-----13----------13----------13----------13-------
--14----------14----------14----------------------
--------------------------------------------------
--------------------------------------------------
--------------------------------------------------

--15----15-20-15----15-20-15----15-20-15----15-20-
-----17----------17----------15----------15-------
--------------------------------------------------
--------------------------------------------------
--------------------------------------------------
--------------------------------------------------

--------12-17-------12-17-------12-17-12----12-17-
-----13----------13----------13----------13-------
--14----------14----------14----------------------
--------------------------------------------------
--------------------------------------------------
--------------------------------------------------

--12----12-17-12----12-17-17----17-22-17----17-22-------------------
-----12----------12----------19----------19-------------------------
--------------------------------------------------------------------
--------------------------------------------------------------------
--------------------------------------------------------------------
--------------------------------------------------------------------

------------------------------------------------------------------------
------------------------------------------------------------------------
------------------------------------------------------------------------
------------------------------------------------------------------------
------------------------------------------------------------------------
------------------------------------------------------------------------

------------------------------------------------------------------------
------------------------------------------------------------------------
------------------------------------------------------------------------
------------------------------------------------------------------------
------------------------------------------------------------------------
------------------------------------------------------------------------

------------------------------------------------------------------------
------------------------------------------------------------------------
------------------------------------------------------------------------
------------------------------------------------------------------------
------------------------------------------------------------------------
------------------------------------------------------------------------

------------------------------------------------------------------------
------------------------------------------------------------------------
------------------------------------------------------------------------
------------------------------------------------------------------------
------------------------------------------------------------------------
------------------------------------------------------------------------

------------------------------------------------------------------------
------------------------------------------------------------------------
------------------------------------------------------------------------
------------------------------------------------------------------------
------------------------------------------------------------------------
------------------------------------------------------------------------

------------------------------------------------------------------------
------------------------------------------------------------------------
------------------------------------------------------------------------
------------------------------------------------------------------------
------------------------------------------------------------------------
------------------------------------------------------------------------

--------------------8-0-8-0-7-0-7-0-5-0-5-0-8-7-5---
--------------------------------------------------5-
----------------------------------------------------
----------------------------------------------------
----------------------------------------------------
----------------------------------------------------

--8-0-8-0-7-0-7-0-5-0-5-0-3-5-7-3---8-0-8-0-7-0-7-0-5-0-5-0-8-7-5---
------------------------------------------------------------------5-
--------------------------------------------------------------------
--------------------------------------------------------------------
--------------------------------------------------------------------
--------------------------------------------------------------------

--8-0-8-0-7-0-7-0-3-1-3-5-7-5-7-8-------------------------------------
----------------------------------------------------------------------
----------------------------------------------------------------------
----------------------------------------------------------------------
----------------------------------------------------------------------
----------------------------------------------------------------------

------------------------------------
------------------------------------
------------------------------------
------------------------------------
------------------------------------
------------------------------------

--------12-17-------12-17-------12-17-12----12-17-
-----13----------13----------13----------13-------
--14----------14----------14----------------------
--------------------------------------------------
--------------------------------------------------
--------------------------------------------------

--15----15-20-15----15-20-15----15-20-15----15-20-
-----17----------17----------15----------15-------
--------------------------------------------------
--------------------------------------------------
--------------------------------------------------
--------------------------------------------------

--------12-17-------12-17-------12-17-12----12-17-
-----13----------13----------13----------13-------
--14----------14----------14----------------------
--------------------------------------------------
--------------------------------------------------
--------------------------------------------------

--12----12-17-12----12-17-17----17-22-17----17-22-
-----12----------12----------19----------19-------
--------------------------------------------------
--------------------------------------------------
--------------------------------------------------
--------------------------------------------------

--------12-17-------12-17-------12-17-12----12-17-
-----13----------13----------13----------13-------
--14----------14----------14----------------------
--------------------------------------------------
--------------------------------------------------
--------------------------------------------------

--15----15-20-15----15-20-15----15-20-15----15-20-
-----17----------17----------15----------15-------
--------------------------------------------------
--------------------------------------------------
--------------------------------------------------
--------------------------------------------------

--------12-17-------12-17-------12-17-12----12-17-
-----13----------13----------13----------13-------
--14----------14----------14----------------------
--------------------------------------------------
--------------------------------------------------
--------------------------------------------------

--12----12-17-12----12-17-17----17-22-17----17-22-------------------
-----12----------12----------19----------19-------------------------
--------------------------------------------------------------------
--------------------------------------------------------------------
--------------------------------------------------------------------
--------------------------------------------------------------------

------------------------------------------------------------------------
------------------------------------------------------------------------
------------------------------------------------------------------------
------------------------------------------------------------------------
------------------------------------------------------------------------
------------------------------------------------------------------------

------------------------------------------------------------------------
------------------------------------------------------------------------
------------------------------------------------------------------------
------------------------------------------------------------------------
------------------------------------------------------------------------
------------------------------------------------------------------------

------------------------------------
------------------------------------
------------------------------------
------------------------------------
------------------------------------
------------------------------------]
____________
Наверх