Аккорды «Nine Days»

Nine Days
Nine Days – рок группа, пользовавшаяся особой популярностью в 2000-х. Основана Джоном Хэмпсоном и Брайаном Дэсво в Оустер-Бэй. В 90-х они выпустили 3 независимых альбома. Их дебютный мэйнстрим альбом, The Madding Crowd, появился в 2000 году. Благодаря таким хитам, как “Absolutely (Story of a Girl)” и “If I Am” к ним пришла популярность. Другой релиз группы, So Happily Unsatisfied, был объявлен в 2003. К сожалению, из-за осложнений отношений с их записывающим лейблом, Sony, этот альбом фактически… Читать полностью... Nine Days – рок группа, пользовавшаяся особой популярностью в 2000-х. Основана Джоном Хэмпсоном и Брайаном Дэсво в Оустер-Бэй. В 90-х они выпустили 3 независимых альбома. Их дебютный мэйнстрим альбом, The Madding Crowd, появился в 2000 году. Благодаря таким хитам, как “Absolutely (Story of a Girl)” и “If I Am” к ним пришла популярность. Другой релиз группы, So Happily Unsatisfied, был объявлен в 2003. К сожалению, из-за осложнений отношений с их записывающим лейблом, Sony, этот альбом фактически так и не появился на свет, так как Nine Days больше не владели правами на записи. В 2006, на официальном сайте группы появилась информация о том, что новый альбом практически готов к релизу, но на этом дело и закончилось. После ухода от Sony, Nine Days выпускают новый альбом своими силами, на собственном звукозаписывающем лэйбле. Его можно приобрести на официальном сайте группы. Несмотря на то, что группа в общем-то существовала и давала периодические концерты, вокалисты-основатели группы (Джон Хэмпсон и Брайан Дэсво) занялись сольными проектами. В середине августа 2006 группа воссоединилась и приступила к работе в студии над Slow Motion Life (Part One), своим новым EP, состоящим из 6 композиций, который был выпущен 19 января 2007 года. «Part Two» был запланирован на лето 2007, но так и не появился. Скрыть...
Популярные аккорды Nine Days:
алфавиту | просмотрам | случайно
  • Standard tuning
    Capo 4th fret
    
    Chords:
    
      G   D  Cadd9 F  G/D Dsus4
     -3- -2-  -3- -1- -3-  -3-
     -3- -3-  -3- -1- -3-  -3-
     -0- -2-  -0- -2- -0-  -2-
     -0- -0-  -2- -3- -2-  -0-
     -2- -X-  -2- -3- -3-  -X-
     -3- -X-  -X- -1-…
  • Chords
    
    Chords:
    Csus2......032033
    G5.........320033
    A7sus4.....002233
    D..........000232
    Bm.........024432
    Em7........022033
    Dadd4/F#...200233
    
    
    
    Chorus:
    
    Csus2   G5   A7sus4   D   Bm   Csus2  A7sus4   
    
    This is a story of…
  • Chords:
    G      320033   Em7   022033
    
    Cadd9  x32033   Dsus4 000233
    
    Intro (piano)
    just notes of the song chord progression
    
    G Em7  Cadd9 Dsus4 (u can use just D if u want)
    
    
    Verse 1.
    
    G                Em7               Cadd9…
  • Intro, Verse
    
    e-3---------3---------------------
    B-3---------3---------------------
    G-0---------0---------------------
    D-0---------2---------------------
    A-2--0-h2---3---------------------
    E-3-------------------------------
    
    The…
  • e------11----------10-----------8--------------
    b---11----11----11----11----11----11---8---11--
    g-8-----------8----------8---------------------
    d----------------------------------------------
    a----------------------------------------------
    e----------------------------------------------
    
    you…
  • Chords
    ------
    
    Cadd9  x32033
    D      xx0323
    G6     x20033
    F      133211
    Em7    022033
    G      320033
    
    
    Chourus:
    
                          Cadd9
    If You would just come back to me
                   D
    I would be so good…
  • Intro and verses:
    e|-----------------|-----------------|-----------------|
    B|-----------------|-----------------|-----------------|
    G|-7---7---7---7---|-6---6---6---6---|-7---7---7---7---|
    D|---0---0---0---0-|---0---0---0---0-|---9---9---9---9-|
    A|-----------------|-----------------|-----------------|
    E|-----------------|-----------------|-----------------|
    
    e|-----------------|-----------------|-----------------|
    B|-----------------|-----------------|-----------------|
    G|-2---2---2---2---|---0---0---0---0-|-2---2---2---2---|
    D|---4---4---4---4-|-7---7---7---7---|---4---4---4---4-|
    A|-----------------|-----------------|-----------------|
    E|-----------------|-----------------|-----------------|
    
    e|-----------------|-----------------|
    B|-----------------|-----------------|
    G|-6---6---6---6---|-6---6---6---6---|
    D|-----------------|-----------------|
    A|---7---7---7---7-|---0---0---0---0-|
    E|-----------------|-----------------|…
  • / slide up     slide down    b bend 
    
    Intro: 
     Piano  
     e ----------------------------------- 
     B ----------------------------------- 
     G --7-7-7-7-7-7-7-7--7-7-7-6-6-6-6-6- 
     D --7-7-7-7-7-7-7-7--7-7-7-7-7-7-7-7- 
     A -----------------------------------…
Наверх