Аккорды Nirvana - Formaldehyde

Добавлено: @romashka
Дата добавления: 25 Июня 2024г.
Рейтинг:
0.0
Просмотров: 8
e |--------------------------------------------------|
B |--------------------------------------------------|
G |--------------------------------------------------|
D |-------3----------3-3---------3---------3-3-------|
A |-----3---3-----3------3----3----3----3------3-----|
E |---1--------1------------1----------1-----------1-|

e |--------------------------------------------------------|
B |--------------------------------------------------------|
G |----12-11-10--------9-8-7------7-6-5--------------------|
D |----------------13-----------10----------8-8-7-8-9-8-7--|
A |--------------------------------------------------------|
E |--------------------------------------------------------|

e |---------------------------------------------------------------|
B |---------------------------------------------------------------|
G |--12-14-12-11---11-10-9------9-8-7-----------------------------|
D |----------------------------12-----------10-10-9-10-11-10-9----|
A |---------------------------------------------------------------|
E |---------------------------------------------------------------|
Но если и музыка нас оставит, что будет тогда с нашим миром? (Гоголь)
Мы стремимся к созданию контента, соответствующего всем нормам законодательства и уважающего интеллектуальную собственность. Мы также придаем большое значение тому, чтобы не задеть никого и не оскорбить чьи-либо чувства. Если у вас есть вопросы или претензии по размещенному материалу, пожалуйста, сообщите нам об этом на указанный адрес электронной почты: [email protected].
Шрифт
-
0
+
Прокрутка
-
0
+
Стоп
Наверх