Аккорды Noize MC - Вояджер-1

Добавлено: @romashka
Дата добавления: 20 Декабря 2020г.
Рейтинг:
0.0
Просмотров: 514
Транспонировать - +
Куплет 1:

1.----0-------0-------0-------0-------0-------0-------0-------0------
2.-17------17------17------15------15--------------------------------
3.-----------------------------------------17------14------17--------
4.------15------15------15------15------15------15------15------15---
5.-------------------------------------------------------------------
6.-------------------------------------------------------------------   х2
  Столько лет прошло, а холод жжёт в груди.
  Эй, Земля, алло, я «Вояджер-1» —
  Выходи на связь, срочно выходи

1.----0-------0-------0-------0-------0-------0-------0-------0------
2.-------------------------17------17------17------17------17--------
3.-14------14------14------------------------------------------------
4.------15------15------15------15------15------15------15------15---
5.-------------------------------------------------------------------
6.-------------------------------------------------------------------   х2
  Наскитался всласть по Млечному пути
  Да так и не сумел себе найти другой ориентир.

1.----0-------0-------0-------0-------0-------0-------0-------0------
2.-17------17------17------15------15--------------------------------
3.-----------------------------------------17------14------17--------
4.------15------15------15------15------15------15------15------15---
5.-------------------------------------------------------------------
6.-------------------------------------------------------------------   х2
  До тебя теперь — миллиарды вёрст
  И сверхновых нет среди старых звёзд:
  Все — как секонд-хенд, а мне надо first

1.----0-------0-------0-------0-------0-------0-------0-------0------
2.-------------------------17------17------17------17------17--------
3.-14------14------14------------------------------------------------
4.------15------15------15------15------15------15------15------15---
5.-------------------------------------------------------------------
6.-------------------------------------------------------------------   х2
  Я незваный гость: изучаю здесь
  Внеземную жизнь через линзы слёз —
  И звучит, как месть


Пре:

1.----0-------0-------0-------0-------0-------0-------0-------0------
2.-13------13------13------13------14------14------14------14--------
3.-------------------------------------------------------------------
4.------15------15------15------15------15------15------15------15---
5.-------------------------------------------------------------------
6.-------------------------------------------------------------------
  Тишина в твоём ответе
  
1.----0-------0-------0-------0-------0-------0-------0-------0------
2.-15------15------15------15------17------17------17------17--------
3.-------------------------------------------------------------------
4.------15------15------15------15------15------15------15------15---
5.-------------------------------------------------------------------
6.-------------------------------------------------------------------
  В моём горле — ком с Юпитер:

1.----0-------0-------0-------0-------0-------0-------0-------0------
2.-18------18------18------18------20------20------20------20--------
3.-------------------------------------------------------------------
4.------15------15------15------15------15------15------15------15---
5.-------------------------------------------------------------------
6.-------------------------------------------------------------------
  Боль размером в сто квадратных

1.----0-------0-------0-------0-------0-------0-------0-------0------
2.-22------22------22------22------22------22------22------22--------
3.(14)----(14)----(14)----(14)----(14)----(14)----(14)----(14)-------
4.------15------15------15------15------15------15------15------15---
5.-------------------------------------------------------------------
6.-------------------------------------------------------------------
  Световых тысячелетий

1.----0-------0-------0-------0-------0-------0-------0-------0------
2.-13------13------13------13------14------14------14------14--------
3.-------------------------------------------------------------------
4.------15------15------15------15------15------15------15------15---
5.-------------------------------------------------------------------
6.-------------------------------------------------------------------
  Я не на твоей орбите —
  
1.----0-------0-------0-------0-------0-------0-------0-------0------
2.-15------15------15------15------17------17------17------17--------
3.-------------------------------------------------------------------
4.------15------15------15------15------15------15------15------15---
5.-------------------------------------------------------------------
6.-------------------------------------------------------------------
  Меня сносит звёздный ветер

1.----0-------0-------0-------0-------0-------0-------0-------0------
2.-18------18------18------18------20------20------20------20--------
3.-------------------------------------------------------------------
4.------15------15------15------15------15------15------15------15---
5.-------------------------------------------------------------------
6.-------------------------------------------------------------------
  Вдаль, за горизонт твоих событий

1.----0-------0-------0-------0-------0-------0-------0-------0------
2.-22------22------22------22------22------22------22------22--------
3.(14)----(14)----(14)----(14)----(14)----(14)----(14)----(14)-------
4.------15------15------15------15------15------15------15------15---
5.-------------------------------------------------------------------
6.-------------------------------------------------------------------
  Метя...


Припев:

1.----0-------0-------0-------0-------0-------0-------0-------0------
2.-13------13------13------13------13------11------10------6----6----
3.------10------10------10------10------10------10------10-----------
4.-------------------------------------------------------------------
5.-------------------------------------------------------------------
6.-------------------------------------------------------------------
  И клином сходится свет
  На дальней точке там, позади

1.----0------0------0------0------0------0------0------0-------------
2.--5------5------5------5------5------5------5------5---------------
3.------7------7------7------7------7------7------7------------------
4.-------------------------------------------------------------------
5.-------------------------------------------------------------------
6.-------------------------------------------------------------------
  На самой лучшей из возможных планет —

1.----0-------0-------0-------0-------0-------0-------0-------0------
2.-13------13------13------13------13------11------10------6----6----
3.------10------10------10------10------10------10------10-----------
4.-------------------------------------------------------------------
5.-------------------------------------------------------------------
6.-------------------------------------------------------------------
  Да только там её давно уже нет:

1.----0------0------0------0------0------0------0------0-------------
2.--5------5------5------5------5------5------5------5---------------
3.------7------7------7------7------7------7------7------------------
4.-------------------------------------------------------------------
5.-------------------------------------------------------------------
6.-------------------------------------------------------------------
  Её уже не найти
  И клином сходится свет

1.----0-------0-------0-------0-------0-------0-------0-------0------
2.-13------13------13------13------13------11------10------6----6----
3.------10------10------10------10------10------10------10-----------
4.-------------------------------------------------------------------
5.-------------------------------------------------------------------
6.-------------------------------------------------------------------
  На дальней точке там, позади

1.----0------0------0------0------0------0------0------0-------------
2.--5------5------5------5------5------5------5------5---------------
3.------7------7------7------7------7------7------7------------------
4.-------------------------------------------------------------------
5.-------------------------------------------------------------------
6.-------------------------------------------------------------------
  На самой лучшей из возможных планет —

1.----0-------0-------0-------0-------0-------0-------0-------0------
2.-13------13------13------13------13------11------10------6----6----
3.------10------10------10------10------10------10------10-----------
4.-------------------------------------------------------------------
5.-------------------------------------------------------------------
6.-------------------------------------------------------------------
  Да только там её давно уже нет

1.----0------0------0------0------0------0------0------0-------------
2.--5------5------5------5------5------5------5------5---------------
3.------7------7------7------7------7------7------7------------------
4.-------------------------------------------------------------------
5.-------------------------------------------------------------------
6.-------------------------------------------------------------------
  Там только призрачный след
  Её уже не найти...



Куплет 2:

1.----0-------0-------0-------0-------0-------0-------0-------0------
2.-17------17------17------15------15--------------------------------
3.-----------------------------------------17------14------17--------
4.------15------15------15------15------15------15------15------15---
5.-------------------------------------------------------------------
6.-------------------------------------------------------------------   х2
  Рёбрами прикрыв Чёрную дыру
  Все наши миры прямо в ней сожру:
  Ни один фотон не сбежит уже

1.----0-------0-------0-------0-------0-------0-------0-------0------
2.-------------------------17------17------17------17------17--------
3.-14------14------14------------------------------------------------
4.------15------15------15------15------15------15------15------15---
5.-------------------------------------------------------------------
6.-------------------------------------------------------------------   х2
  Два октиллиона тонн грузом на душе —
  Как-то ведь тащу, надо же...

1.----0-------0-------0-------0-------0-------0-------0-------0------
2.-17------17------17------15------15--------------------------------
3.-----------------------------------------17------14------17--------
4.------15------15------15------15------15------15------15------15---
5.-------------------------------------------------------------------
6.-------------------------------------------------------------------   х2
  Я тебя прошу — хоть один сигнал
  Импульс хоть один!
  Выходи на связь, срочно выходи —
  Мне не вывезти...

1.----0-------0-------0-------0-------0-------0-------0-------0------
2.-------------------------17------17------17------17------17--------
3.-14------14------14------------------------------------------------
4.------15------15------15------15------15------15------15------15---
5.-------------------------------------------------------------------
6.-------------------------------------------------------------------   х2
  Вакуум — кругом, я в нём по уши:
  Эй, Земля, алло, милый дом,
  услышь мой вой уже, это «Вояджер»!..


Пре:

1.----0-------0-------0-------0-------0-------0-------0-------0------
2.-13------13------13------13------14------14------14------14--------
3.-------------------------------------------------------------------
4.------15------15------15------15------15------15------15------15---
5.-------------------------------------------------------------------
6.-------------------------------------------------------------------
  Тишина в твоём ответе
  
1.----0-------0-------0-------0-------0-------0-------0-------0------
2.-15------15------15------15------17------17------17------17--------
3.-------------------------------------------------------------------
4.------15------15------15------15------15------15------15------15---
5.-------------------------------------------------------------------
6.-------------------------------------------------------------------
  В моём горле — ком с Юпитер:

1.----0-------0-------0-------0-------0-------0-------0-------0------
2.-18------18------18------18------20------20------20------20--------
3.-------------------------------------------------------------------
4.------15------15------15------15------15------15------15------15---
5.-------------------------------------------------------------------
6.-------------------------------------------------------------------
  Боль размером в сто квадратных

1.----0-------0-------0-------0-------0-------0-------0-------0------
2.-22------22------22------22------22------22------22------22--------
3.(14)----(14)----(14)----(14)----(14)----(14)----(14)----(14)-------
4.------15------15------15------15------15------15------15------15---
5.-------------------------------------------------------------------
6.-------------------------------------------------------------------
  Световых тысячелетий

1.----0-------0-------0-------0-------0-------0-------0-------0------
2.-13------13------13------13------14------14------14------14--------
3.-------------------------------------------------------------------
4.------15------15------15------15------15------15------15------15---
5.-------------------------------------------------------------------
6.-------------------------------------------------------------------
  Я не на твоей орбите —
  
1.----0-------0-------0-------0-------0-------0-------0-------0------
2.-15------15------15------15------17------17------17------17--------
3.-------------------------------------------------------------------
4.------15------15------15------15------15------15------15------15---
5.-------------------------------------------------------------------
6.-------------------------------------------------------------------
  Меня сносит звёздный ветер

1.----0-------0-------0-------0-------0-------0-------0-------0------
2.-18------18------18------18------20------20------20------20--------
3.-------------------------------------------------------------------
4.------15------15------15------15------15------15------15------15---
5.-------------------------------------------------------------------
6.-------------------------------------------------------------------
  Вдаль, за горизонт твоих событий

1.----0-------0-------0-------0-------0-------0-------0-------0------
2.-22------22------22------22------22------22------22------22--------
3.(14)----(14)----(14)----(14)----(14)----(14)----(14)----(14)-------
4.------15------15------15------15------15------15------15------15---
5.-------------------------------------------------------------------
6.-------------------------------------------------------------------
  Метя...


Припев:

1.----0-------0-------0-------0-------0-------0-------0-------0------
2.-13------13------13------13------13------11------10------6----6----
3.------10------10------10------10------10------10------10-----------
4.-------------------------------------------------------------------
5.-------------------------------------------------------------------
6.-------------------------------------------------------------------
  И клином сходится свет
  На дальней точке там, позади

1.----0------0------0------0------0------0------0------0-------------
2.--5------5------5------5------5------5------5------5---------------
3.------7------7------7------7------7------7------7------------------
4.-------------------------------------------------------------------
5.-------------------------------------------------------------------
6.-------------------------------------------------------------------
  На самой лучшей из возможных планет —

1.----0-------0-------0-------0-------0-------0-------0-------0------
2.-13------13------13------13------13------11------10------6----6----
3.------10------10------10------10------10------10------10-----------
4.-------------------------------------------------------------------
5.-------------------------------------------------------------------
6.-------------------------------------------------------------------
  Да только там её давно уже нет:

1.----0------0------0------0------0------0------0------0-------------
2.--5------5------5------5------5------5------5------5---------------
3.------7------7------7------7------7------7------7------------------
4.-------------------------------------------------------------------
5.-------------------------------------------------------------------
6.-------------------------------------------------------------------
  Её уже не найти
  И клином сходится свет

1.----0-------0-------0-------0-------0-------0-------0-------0------
2.-13------13------13------13------13------11------10------6----6----
3.------10------10------10------10------10------10------10-----------
4.-------------------------------------------------------------------
5.-------------------------------------------------------------------
6.-------------------------------------------------------------------
  На дальней точке там, позади

1.----0------0------0------0------0------0------0------0-------------
2.--5------5------5------5------5------5------5------5---------------
3.------7------7------7------7------7------7------7------------------
4.-------------------------------------------------------------------
5.-------------------------------------------------------------------
6.-------------------------------------------------------------------
  На самой лучшей из возможных планет —

1.----0-------0-------0-------0-------0-------0-------0-------0------
2.-13------13------13------13------13------11------10------6----6----
3.------10------10------10------10------10------10------10-----------
4.-------------------------------------------------------------------
5.-------------------------------------------------------------------
6.-------------------------------------------------------------------
  Да только там её давно уже нет

1.----0------0------0------0------0------0------0------0-------------
2.--5------5------5------5------5------5------5------5---------------
3.------7------7------7------7------7------7------7------------------
4.-------------------------------------------------------------------
5.-------------------------------------------------------------------
6.-------------------------------------------------------------------
  Там только призрачный след
  Её уже не найти...


Аутро:

1.-------------------------------------------------------------------
2.---13--------13-------13---------13------11------10/8------6-------
3.--------10-------10-----10-----------------------------------------
4.-------------------------------------------------------------------
5.-------------------------------------------------------------------
6.-------------------------------------------------------------------

1.-------------------------------------------------------------------
2.---5---------5---------5---------5---------5---------5-------------
3.--------7---------7------7------------7---------7------7-----------
4.-------------------------------------------------------------------
5.-------------------------------------------------------------------
6.-------------------------------------------------------------------

В припеве можно взять табы из аутро ( -> как в оригинале).
Наверх