Аккорды «Nonpoint»

Nonpoint
Предтечей этой nu metal-группы стала основанная уроженцем Нью-Йорка, проживавшим в Пуэрто-Рико, Роббом Риверой команда под названием "Nonpoint factor". Латинский рок в то время начал поднимать голову, и, желая не ограничивать себя рамками острова, Ривера перебрался во Флориду с целью собрать настоящую металлическую банду своей мечты. Роббу повезло, и он познакомился там с будущим фронтменом и автором текстов "Nonpoint" Элиасом Сориано. Элиас был выходцем из Нью-Джерси, но юность свою провел в Форте… Читать полностью... Предтечей этой nu metal-группы стала основанная уроженцем Нью-Йорка, проживавшим в Пуэрто-Рико, Роббом Риверой команда под названием "Nonpoint factor". Латинский рок в то время начал поднимать голову, и, желая не ограничивать себя рамками острова, Ривера перебрался во Флориду с целью собрать настоящую металлическую банду своей мечты. Роббу повезло, и он познакомился там с будущим фронтменом и автором текстов "Nonpoint" Элиасом Сориано. Элиас был выходцем из Нью-Джерси, но юность свою провел в Форте Додердэйле. Музыку он полюбил с тех пор, как ему удалось попасть на концерт популярной пуэрто-риканской банды "Puya". В 1997 году состав "Nonpoint" был окончательно доукомплектован членами флоридской команды "Fuse" басистом Кеем Би и гитаристом Эндрю Голдменом. Коллектив получился на редкость гармоничным, и это стало одной из причин того, что "Nonpoint" принялись с легкостью покорять флоридскую публику. В том же 1997-м парни выпустили свой первый CD "Separate yourself", сразу же ставший бестселлером на юго-востоке США. На следующий год успех повторился с диском "Struggle", а парни тем временем запросто распродавали самые престижные площадки во Флориде. В конце концов, рост популярности привел к неизбежному результату – подписанию контракта с мажорным лейблом. Выбор был остановлен на "MCA records", и в 2000 году под руководством Джейсона Байлера их "Saigon kick" музыканты отправились в студию записывать свою первую "настоящую" пластинку. Кроме нескольких старых треков типа "Mindtrip" и "Victim" на диск попал и ряд новых композиций, в том числе и испаноязычная "Orgulla". В 2001-м состоялись первые глобальные национальные гастроли "Nonpoint", в течение которых группе пришлось выступать с такими командами, как "Mudvayne" и "Spineshank". А после появления на "Оззфесте" коллектив перешел в разряд хедлайнеров и теперь уже колесил по Америке при поддержке "Reveille", "Switched" и "Darwin's waiting room". В 2002-м "MCA" переиздали ранние работы "Nonpoint" под названием "Separate yourself (The beginning 1997-'98)", куда вошел материал с первых двух альбомов группы. В том же году появился и свежий компакт-диск "Development", созданный при участии продюсера Боба Клермонтана. А пока коллектив разминался в туре "Locobazooka", альбом добрался до 52-й строчки американских чартов. После этого у Nonpoint вышли 5 альбомов: "Recoil" в 2004, "To The Pain" в 2005, "Vengeance" в 2007, "Miracle" в 2010 и "Nonpoint" в 2012. Состав: вокалист - Элиас Сориано ударник - Роб Ривера гитарист - Эндрю Голдмен басист - Кей Би. Скрыть...
Популярные аккорды Nonpoint:
алфавиту | просмотрам | случайно
  • Tuning: Standard 5 String: B,E,A,D,G
    
    Verse 1(Around 00:20)
    G|---5----------3h5------------
    D|-----4----3h5---------5-4*--- x2
    A|-----------------------------
    E|-----------------------------
    B|1-------1---------1-1--------
    
    Prechorus
    G|-----------------------------…
  • Endure
    
    
    ---------|-------|---------------------------------|---------------|----------
    ---------|-------|---------------------------------|---------------|----------
    -7777777-|-------|------------------------------7--|-7777---5555---|----------
    ---------|-5-3-0-|-----0-------0-------0-------0---|-7777-5-5555-5-|-5-3-0----
    ---------|-5-3-0-|---0---0---0---0---0---0---0---0-|-5555-5-3333-5-|-5-3-0----
    -0-3-5-7-|-5-3-0-|-0-------3-------5-------7-------|------5------5-|-5-3-0----…
  • tuning 
              1 whole step down the drop D sting to C
              C G C F A D
              
              ------------------------------------------------------------------------------
              ------------------------------------------------------------------------------…
  • Tuning:C,G,C,F,A,D
    ------------------|---------------|-------------------|-------|
    ------------------|---------------|-------------------|-------|
    ------------------|---------------|-----------------3-|-3-----|
    -1-00-01-00-01010-|-1-00-01-00-02-|-20--002---02-02-3-|-3-2-0-|
    -1-00-01-00-01010-|-1-00-01-00-02-|-20--002---02-02-1-|-1-2-0-|
    -1-00-01-00-01010-|-1-00-01-00-02-|-20--002---02-02---|---2-0-|…
  • Tuning - CGCFAD
    
    Children's Story*
    |--------------------------------------------------------------------|
    |--------------------------------------------------------------------|
    |-7--------7--7--------7-------7--7----------------------------------|Gtr
    |--------------------------------------------------------------------|…
  • Drop-D Tuning
    
    Intro & Chorus 
    e|----------------------------------------------------------|
    b|----------------------------------------------------------|
    g|------------8-8-8-8-10-10-10------------------------------|
    d|8/10-12-12--8-8-8-8-8--8--8-10-10-10-10--8-8-8-8-10-10-10-|
    a|8/10-10-10--8-8-8-8-8--8--8-10-10-13-13--8-8-8-8-8--8--8--|
    d|8/10-10-10--8-8-8-8-8--8--8-10-10-10-10--8-8-8-8-8--8--8--|
    
    e|------------------------------------------------------------------------|
    b|------------------------------------------------------------------------|
    g|------------------------------------------------------------------------|
    d|6-6-6-6-8-8-8-8-10-10-10-10-8-8-8-8-6-6-6-6-8-8-8-8-6--6--6--6--6-6-6-6-|
    a|6-6-6-6-6-6-6-6-6--6--6--6--6-6-6-6-6-6-6-6-6-6-6-6-10-10-10-10-6-6-6-6-|
    d|6-6-6-6-6-6-6-6-6--6--6--6--6-6-6-6-6-6-6-6-6-6-6-6-6--6--6--6--6-6-6-6-|…
  • Tuning: Drop D one full step down to C
    C G C F A D
    
       [Verse 00:00 - 00:32] Funny feelin', my gut's intuition...
    -|PATTERN-A(Clean-possibly-flanged-guitar)-----------------------------------|
    -|---------------------------------------------------------------------------|
    -|---------2---------------2---------------2---------------2-----------------|
    -|-----0-------0-------0-------0-------0-------0-------0-------0-------------|
    -|---0---0---0---0---0---0---0---0---0---0---0---0---0---0---0---0-----------|
    -|-0---------------0---------------0---------------0-------------------------|
    
    -|PATTERN-B(Distortion)------------------------------------------------------|
    -|---------------------------------------------------------------------------|
    -|---------------------------------------------------------------------------|
    -|-12-12-0-13-12--0-13-12--0-13-127-7---------------------------------------|
    -|-12-12-0-13-12--0-13-12--0-13-127-7---------------------------------------|
    -|-12-12-0-13-12--0-13-12--0-13-127-7---------------------------------------|
    
    	Play…
  • e|---------------------------------------------------------------------------------|
    a|---------------------------------------------------------------------------------|
    d|-----------------------------------------------------------8---------------------|
    g|---------------------------------------------6-7---------------------------------|
    b|--0-0-------0-----0-----------6-7------------------------------------------------|
    e|--0-0-------0-----0--------------------------------------------------------------|
    
    e|---------------------------------------------------------------------------------|
    a|---------------------------------------------------------------------------------|
    d|-----------------------------------------------------------5---------------------|
    g|---------------------------------------------6-7---------------------------------|
    b|--0-0-------0-----0-----------6-7------------------------------------------------|
    e|--0-0-------0-----0--------------------------------------------------------------|
    
    e|---------------------------------------------------------------------------------|
    a|---------------------------------------------------------------------------------|
    d|---------------------------------------------------------------------------------|
    g|--5-5-5-6-6-3-3-5-5-1-1-3-3-1-1-1-1-3-3-5-5--------------------------------------|
    b|---------------------------------------------------------------------------------|
    e|---------------------------------------------------------------------------------|…
  • Tuning is drop d- whole step down (C-G-C-F-A-D)
    
    Intro (w/ distortion)
    ------------------------------------------------------------------------------|
    ------------------------------------------------------------------------------|
    ------------------------------------------------------------------------------|
    -0----6p0-6p0----3p0-3h0--6p5-------------------------------------------------|
    -0----6p0-6p0----3p0-3h0--6p5-------------------------------------------------|
    -0----6p0-6p0----3p0-3h0--6p5-------------------------------------------------|
    
    Verse…
  • Standard tuning
    
    Intro/Chrous
    E|--------------------------------------------|
    B|--------------------------------------------|
    G|----------9-/-10/-11~-----------9-/-10------|
    D|--5-5-5-5-x-/-x-/-x----5-5-5-5--x-/-x-------|
    A|--5-5-5-5-7-/-8-/-9~---5-5-5-5--7-/-8-------|
    D|--3-3-3-3--------------3-3-3-3--------------|
    
    E|--------------------------------------------|
    B|--------------------------------------------|
    G|--------------------------------------------|
    D|--5-5-5--7--7-7---5-5-5--5--7-7-------------|
    A|--5-5-5--7--7-7---3-3-3--5--7-7-------------|
    D|--3-3-3--5--5-5---3-3-3--3--5-5-------------|
    
    
    Verse…
  • Tuning: CGCFAD(low to high)
    
    Main Riff
    |---------------------------------------------------------------------------|
    |---------------------------------------------------------------------------|
    |---------------------------------------------------------------------------|
    |---------------------------------------------------------------------------|
    |--0001000100010001033344455------------------------------------------------|
    |--0001000100010001033344455------------------------------------------------|
    
    Fill…
  • tuning 
    C G C F A D
    
    -101010/13-13-13/101010/15-15-15-15/101010/13-13-13/101010/17-17-17-17----------
    -x-x-x-/x--x--x-/x-x-x-/x--x--x--x/x-x-x-/x--x--x-/x-x-x-/x--x--x--x------------
    -7-7-7-/10-10-10/7-7-7-/12-12-12-12/7-7-7-/10-10-10/7-7-7-/14-14-14-14----------
    ------------------------------------------------------------------------------
    ------------------------------------------------------------------------------
    ------------------------------------------------------------------------------
    play…
Наверх