Аккорды Nota Bene - Вечер октября

Добавлено: @romashka
Дата добавления: 27 Июля 2022г.
Рейтинг:
0.0
Просмотров: 45
Транспонировать - +
[Вступление]:

   D               D                 Bm              F#m               Bm
1||---2-3-2-0-2-------2-3-2-0-2----|------2---------------2-----------------2|
2||--3---------------3-------------|-----3-5-3-2-3-------2-----------------3-|
3||-2---------------2--------------|----4---------------2----2------------4--|
4||0---------------0---------------|---4---------------4---------4-------4---|
5||--------------------------------|--2---------------4-----------------2----|
6||--------------------------------|-2---------------2-----------------2-----|

             F#m             Em                A
E||---------------2---------------0|----------------0------------------------|
B||5-3-2-3-------2---------------0-|---3---2-------2---3---5-----------------|
G||-------------3----3----------0--|--------------2--------------------------|
D||------------4---------4-----2---|-------------2---------------------------|
A||-----------4---------------2----|------------0----------------------------|
E||----------2---------------0-----|-----------0-----------------------------|


D 
Крыши городов атакует дождь
Bm              F#m
Тенью меж домов осень
Bm              F#m
Зимних холодов просит
Em      A
Ветер бьет насквозь 

D 
Мокрое пальто защитит меня 
Bm            F#m
Но идти домой долго
Bm           F#m
и уже темно поздно 
Em       A
вечер октября 

    D C         Bm A#
эта осень обувь сносит 
     G  A       D A
из опавшей листвы 
    D C       Bm  A#
эта осень нас уносит 
       G  A     D A
до ближайшей зимы 

D C Bm A# G A D A   2X

D 
Осенью смешно думать о тепле
Bm             F#m
Осенью грешно дуться 
Bm              F#m
Ведь будет ещё стужа 
  Em        A
В зимнем декабре 
 
D
Утром долгом сплю рано мне не встать 
Bm             F#m
печку затоплю позже 
Bm              F#m
завтра как ложу тоже 
E      A
осень дай поспать  

    D C         Bm A#
эта осень обувь сносит 
     G  A       D A
из опавшей листвы 
    D C       Bm A#
эта осень нас уносит 
       G A      D A
до ближайшей зимы 

Бой:
В куплетах: ↓↓↓x↑
В припеве:  ↓↓↓↑↑↓↓x↑
Наверх