Аккорды Олег Газманов - Офицеры

Добавлено: @romashka
Дата добавления: 30 Ноября 2020г.
Рейтинг:
0.0
Просмотров: 46
Транспонировать - +
Перебор: Dm(V) D7(V) | Gm Gdim Edim7 | Dm Bb F Gm | Dm A7 Dm

   Dm(V)                     D7(V)                    
e|-------------------------|-------------------5-----|
B|-------6-----------6-----|-------7---------7---7---|
G|-----7---7-------7---7---|-----5---5-----5-------5-|
D|---7-------7---7-------7-|---7-------7-------------|
A|-5-----------5-----------|-5-----------5-----------|
E|-------------------------|-------------------------|

   Gm                        Gdim          Edim7        
e|-------3-----------------|-------------|-------0-----|
B|---------3---------3-----|-------5-----|-----2---2---|
G|-----------3---------3---|-----3---3---|---0-------0-|
D|-----5-----------5-----5-|---5-------5-|-------------|
A|---5-----------5---------|-4-----------|-1-----------|
E|-3-----------3-----------|-------------|-------------|

   Dm            Bb            F             Gm             
e|-------1-----|-------------|-------------|-------------|
B|-----3---3---|-------3-----|-------1-----|-------3-----|
G|---2-------2-|-----3---3---|---------2---|---------3---|
D|-0-----------|---3-------3-|-----3-----3-|-----5-----5-|
A|-------------|-1-----------|---3---------|---5---------|
E|-------------|-------------|-1-----------|-3-----------|

   Dm            A7            Dm            Dm
e|-------1-----|-------0-----|-------1-----|-1---|
B|-----3---3---|-----2---2---|-----3---3---|-3---|
G|---2-------2-|---0-------0-|---2-------2-|-2---|
D|-0-----------|-------------|-0-----------|-0---|
A|-------------|-0-----------|-------------|-0---|
E|-------------|-------------|-------------|-----|


Куплет 1 (перебор):

            Dm(V)                 D7(V)
Господа офицеры, по натянутым нервам
             Gm              Gdim  Edim7
Я аккордами веры эту песню пою -
                     Dm  Bb            F  Gm
Тем, кто, бросив карьеру, живота не жалея,
                   Dm         A7    Dm
Свою грудь подставляет за Россию свою.

                    Dm(V)                 D7(V)
Тем, кто выжил в Афгане, свою честь не изгадив,
                Gm                     Gdim  Edim7
Кто карьеры не делал от солдатских кровей,
          Dm   Bb            F  Gm
Я пою офицерам, матерей пожалевшим,
                Dm      A7      Dm
Возвратив им обратно живых сыновей.


Припев (бой):

         Gm       A7         Dm     C      Bb  Bb/A
     Офицеры, офицеры, ваше сердце под прицелом
            Gm       A7         Dm Dm/E Dm/F Dm
     За Россию и свободу до конца.
         Gm        A7             Dm   C   Bb  Bb/A
     Офицеры, россияне, пусть свобода воссияет,
            Gm       A7              Dm
     Заставляя в унисон звучать сердца.



Куплет 2 (перебор):

            Dm(V)                  D7(V)
Господа офицеры, как сберечь вашу веру?
               Gm                 Gdim  Edim7
На разрытых могилах ваши души хрипят:
                      Dm     Bb             F      Gm
«Что ж мы, братцы, наделали!? Не смогли уберечь их,
              Dm         A7        Dm
И теперь они вечно в глаза нам глядят».

                Dm(V)                 D7(V)
Вновь уходят ребята, растворяясь в закатах, -
               Gm                 Gdim  Edim7
Позвала их Россия, как бывало не раз.
             Dm     Bb                F   Gm
И опять вы уходите - может, прямо на небо,
              Dm       A7    Dm
И откуда-то сверху прощаете нас.


Бридж (бой):

                Gm     A7                Dm C Bb
Так куда ж вы уходите - может, прямо на небо?
     Bb/A     Dm       A7    Dm
И откуда-то сверху прощаете нас.


Припев (бой):

         Gm       A7         Dm     C      Bb  Bb/A
     Офицеры, офицеры, ваше сердце под прицелом
            Gm       A7         Dm Dm/E Dm/F Dm
     За Россию и свободу до конца.
         Gm        A7             Dm   C   Bb  Bb/A
     Офицеры, россияне, пусть свобода воссияет,
            Gm       A7              Dm
     Заставляя в унисон звучать сердца.


Завершение (бой):
Dm   Gm   Gdim A7 Dm
Наверх