Аккорды Олег Легкий - Картонка

Добавлено: @romashka
Дата добавления: 08 Июня 2019г.
Рейтинг:
0.0
Просмотров: 18
Транспонировать - +
Куплет:
e|------------------ ==
B|-5-5-5-5-5-5-5-5--   
G|--4-----4-4-----4-    
D|------0-------0---        
A|----3-------3-----         
E|------------------          
                               
------------------           
-7-7-7-7-7-7-7-7--             
--4-----4-4-----4-             
------0-------0---              
----3-------3-----               
------------------                
                                  х2
------------------               /
-2-2-2-2-2-2-2-2--              /
--4-----4-4-----4-             /
------0-------0---            /
----3-------3-----           /
------------------          /
                           /
------------------        /
-0-0-0-0-0-0-0-0--       /
--4-----4-4-----4-      /
------0-------0---     /
----2-------2-----    /
------------------ ==

-0-0-0-0-0-0-0-0--
------------------
--4-----4-4-----4-
------0-------0---
----0-------0-----
------------------

------------------
-2-2-2-2-2-2-2-2--
--4-----4-4-----4-
------0-------0---
----3-------3-----
------------------

------------------
-2-2-2-2-2-2-2-2--
--4-----4-4-----4-
------0-------0---
----3-------3-----
------------------

------------------          
-0-0-0-0-0-0-0-0--         
--4-----4-4-----4-        
------0-------0---       
----2-------2-----      
------------------

------------------          
-0-0-0-0-0-0-0-0--         
--4-----4-4-----4-        
------0-------0---       
----2-------2-----      
------------------

Припев:
-3-3-------------- 
-----0-0-0-0-0-0--  
------------------   
----------2-------    
------3-2---2-3---     
--2-0-------------

Bm       E                  
---------0-0-0-0--     х3
-2-2-2-2----------     /
--4-----4-------4-    /
------4---1---4---   /
----3-------------  /
------------0----- /

-3-3-------------- 
-----0-0-0--------  
------------------   
----------3h4-----    
------3-2----3----     
--2-0-------------

Текст песни:

По городу гулял и горку увидал
Кататься захотел
А санок я не взял
С картонкой хорошо
А без нее никак
не спустишься с горы
Лишь попадешь в просак 
Лишь попадешь в просак 
Лишь попадешь в просак 

С горки весь день катался
С горки весь день катался
С горки весь день катался
С горки весь день

Катался целый день
И вечер наступил
Картонка все ждала 
А кто бы починил
Так классно было мне
Кататься целый день
Так классно будет мне 
И завтра целый день
И завтра целый день
И завтра целый день

С горки весь день катался
С горки весь день катался
С горки весь день катался
С горки я весь день
comments powered by Disqus
Наверх