Аккорды «One Dollar Short»

Популярные аккорды One Dollar Short:
алфавиту | просмотрам | случайно
  • Intro: Gtr 1, 
    |-------------------------------|--------------------------------| 
    |-------------------------------|--------------------------------| 
    |-------------------------------|--------------------------------| 
    |-------------------------------|----------------5---------------|…
  • standard tuning
    
      
    INTRO1: Both Guitars with no distortion and heavy palm muting.
    eI-----------------------------------------------------------------------I  
    BI-----------------------------------------------------------------------I…
  • Intro
    e|---------------------------------------------------------------------------
    B|---------------------------------------------------------------------------
    G|-------------------------------7-7-7-7-7-7-7-7--9-9-9-9-9-9-9-9------------
    D|-x-x-x-x-x-x--5-5-5-5-5-5-5-5--7-7-7-7-7-7-7-7--9-9-9-9-9-9-9-9------------
    A|-x-x-x-x-x-x--5-5-5-5-5-5-5-5--5-5-5-5-5-5-5-5--7-7-7-7-7-7-7-7------------
    E|-x-x-x-x-x-x--3-3-3-3-3-3-3-3----------------------------------------------…
  • Intro
    e|---------------------------------------------------------------------|
    B|---------------------------------------------------------------------|
    G|-9-9-9-9-11-11-11-11-------------------------------------------------|
    D|---------------------------------------------------------------------|
    A|-7-7-7-7--9--9--9--9-------------------------------------------------|
    E|---------------------------------------------------------------------|
    
    Intro…
  • Intro
    e|-3----------------8------7------3----------------8------7------3-----------
    B|---3----------------8------8------3----------------8------8------3---------
    G|-----0----------------0------0------0----------------0------0------0-------
    D|---------------------------------------------------------------------------
    A|---------------------------------------------------------------------------
    E|---------------------------------------------------------------------------
    
    Solo/Lead
    e|--------------------------------------14----15-14-15-17-15-14--------------
    B|----12----13-12-13-15-13-12-13-----15----15-------------------15-----------
    G|-12----12----------------------12------------------------------------------
    D|---------------------------------------------------------------------------
    A|---------------------------------------------------------------------------
    E|---------------------------------------------------------------------------
    
    e|--------------------------------------14----15-14-15-17-15-14--------------
    B|----12----13-12-13-15-13-12-13-----15----15-------------------15-----------
    G|-12----12----------------------12------------------------------------------
    D|---------------------------------------------------------------------------
    A|---------------------------------------------------------------------------
    E|---------------------------------------------------------------------------
    
    Post…
  • Tuning: Standard
    
    Intro
    Guitar 1
    e|---------------------------------------------------------------|
    B|---------------------------------------------------------------|
    G|-xx4x-xx4x---------------------7~------------------------------|
    D|-xx4x-xx4x-xx4x-xx4x-xx5x-xx5x-7~------------------------------|
    A|-xx2x-xx2x-xx4x-xx4x-xx5x-xx5x-5~------------------------------|
    E|-----------xx2x-xx2x-xx3x-xx3x---------------------------------|
    
    Guitar…
  • intro
    guitar 2-
    E--10-------------------------------------------------------------
    B-----10-8-7-8-10-8-7-5-3-----------------------------------------
    G-----------------------------------------------------------------
    D-----------------------------------------------------------------
    A-----------------------------------------------------------------
    E-----------------------------------------------------------------
    
    E-----------------------------------------------------------------
    B-----------------------------------------------------------------
    G-----------------------------------------------------------------
    D-----------------------------------------------------------------
    A--10-9-7h9-5-7---------------------------------------------------
    E-----------------------------------------------------------------
    
    guitar…
  • Key: *= palm mute
         /= bends
         x= mute hit
         //////= pickscrape
    
    
    INTRO: 1st Guitar 
    eI-----------------------------------II---------------I------------------I  
    BI-8-8-8-7-7-7-7-7------------------II-8-7-8-7-------I-8-7-8-7-----7-10-I…
  • * ring chord
    / slide
    
    Intro Pt 1
    e|------------------------------------------------------------------------| 
    B|------------------------------------------------------------------------| 
    G|------------------------------------------------------------------------|…
  • Tuning:EADGbe
    
    Intro - Guitar 1 (clean)
    e|--------------------------------------|
    B|--------------------------------------|
    G|----9--------9--------6---------------|
    D|----7--------7--------7---------------| x2
    A|----9--------5--------7--------7------|
    E|----------------------5--------4------|
    Listen…
  • ~ Let ring
    > Strum
    INTRO                                                                         x1
    G-------------------------------------------------------------------------------
    D-------------------------------------------------------------------------------
    A--------3~-----------------------6~--------------------------------------------
    E-1~--------------3~---------------------------6~----------1~-------------------
    
    Just…
  • INTRO:
    eI-----------------------------------------------------------------------I 
    BI-----------------------------------------------------------------------I  
    GI--------7-x-------x-x-10-----------------------x-x-10------------------I…
  • INTRO
    
    guitar 1
    e----------------------------
    b-10-10-8-8-7-7--------------
    g--7--7-7-7-7-7--------------       x 21
    d----------------------------
    a----------------------------
    e----------------------------
    
    guitar 2
    e---------------------------------
    b---------------------------------
    g----------------77777------------…
  • GUITAR:
    
    INTRO (guitar 1):
    e----------------------------T|-------------------|------------------------|
    B----------------------------I|-------------------|------------------------|
    G--7/9-9-9-x-x--7/9-9-9-x-x--M|--5-5-4-4-5-5-3-3--|--12-12-12-12-12-12-12--|
    D----------------------------E|-------------------|------------------------|
    A--5/7-7-7-x-x--5/7-7-7-x-x--S|--3-3-2-2-3-3-2-2--|--10-10-10-10-10-10-10--|
    E----------------------------2|-------------------|------------------------|
    
    e----------------|
    B----------------|
    G--13-13--13-13--|
    D----------------|
    A--11-11--11-11--|
    E----------------|…
  • ~ - let ring
    >>>> - pick slide
    
    1st Intro
    e|-------------------------------------------------------5-5-5-5-5-5-5-5-5--|
    B|--------------------5-5-5-5-7-5-5-5-5--7p5--------------------------------|
    G|-6-6-6-6-4-6-6-6-6-------------------------6-4-6-6-6-6--------------------|
    D|--------------------------------------------------------------------------|
    A|--------------------------------------------------------------------------|
    E|--------------------------------------------------------------------------|
    
    2nd…
  • Intro 1: Guitar 1 & 2    ( is played with just one guitar on the cd but we play 
    it with 2 cause it     
                                        sounds better)
    e|---------------------------------------------------------------------------|
    B|---------------------------------------------------------------------------|
    G|------12----11-----7------9------------12-----11------7-----xxx----7-------|
    D|------12----11-----7------9------------12-----11------7-----xxx----7-------|
    A|------10-----9-----5------7------------10------9------5-----xxx----5-------|
    E|---------------------------------------------------------------------------|
    
    e|---------------------------------------------------------------------------|
    B|---------------------------------------------------------------------------|
    G|-------12----11----7------9-------------12~…
Наверх