Аккорды «Outkast»

Outkast
OutKast — дуэт американских рэпперов Андре Бенжамена (под псевдонимом Dré и André 3000) и Антвана Паттона (под псевдонимом Big Boi), который представляет атлантскую школу хип-хопа, замешанную на джи-фанке и классическом южном соуле. Лауреаты пяти премий «Грэмми», Outkast развернули хип-хоп-движение южных штатов США от агрессивных гневных выкриков к мелодичным аранжировкам, тщательно продуманной лирике и общему оптимистически-юмористическому настрою. Дуэт образовался в 1991 году, но только по… Читать полностью... OutKast — дуэт американских рэпперов Андре Бенжамена (под псевдонимом Dré и André 3000) и Антвана Паттона (под псевдонимом Big Boi), который представляет атлантскую школу хип-хопа, замешанную на джи-фанке и классическом южном соуле. Лауреаты пяти премий «Грэмми», Outkast развернули хип-хоп-движение южных штатов США от агрессивных гневных выкриков к мелодичным аранжировкам, тщательно продуманной лирике и общему оптимистически-юмористическому настрою. Дуэт образовался в 1991 году, но только по окончании высшего образования Dré и Big Boi заключили контракт с принадлежавшим Бэбифейсу лейблом «LaFace». Их первый же сингл — «Player’s Ball» (1994) — занял первое место в рэп-чартах США. На протяжении 1990-х они приобрели много поклонников в среде музыкальных критиков и слушателей хип-хопа, однако их известность среди белой аудитории до 2000 года была весьма ограничена. Прорыв наступил в конце 2000 года с выходом их четвертого альбома, «Stankonia», который продемонстрировал, что с годами ребята сохранили свой экспериментальный подход к музыке и оригинальность взгляда. Радиостанции по всей стране и за рубежом ухватились за сингл «Ms. Jackson», который был навеян разрывом Андре со статусной ритм-энд-блюзовой певицей Эрикой Баду. На MTV большим успехом пользовался полушутливый клип к этому треку, так что к концу года песня смогла возглавить поп-чарты США. В 2003 году Outkast выпускают двойной альбом «Speakerboxxx/The Love Below», который окончательно утвердил их в статусе суперзвезд — причём не только хип-хопа. Первую часть альбома сочинил Big Boi, вторую — André 3000, что многие истолковали как подготовку к сольным проектам. С каждого диска было выпущено по синглу — «The Way You Move» и «Hey Ya!» — и оба добрались до первого места в Billboard Hot 100. В брызжущем энергетикой клипе на ритм-энд-блюзовую композицию «Hey Ya!» артисты обратились к винтажной тематике — настолько успешно, что этот хит сохранял первое место в США на протяжении девяти недель. В 2006 году Andre 3000 и Big Boi снимаются в фильме Idlewild , для него музыканты написали цельный саундтрек с одноименным названием. В записи альбома, значительную часть которого составляют скиты ака диалоги из фильма, приняли участие Snoop Dogg , Lil Wayne ,Sleepy Brown и другие хорошие ребята. Наряду с «Lose Yourself» Эминема, «Hey Ya!» была единственной песней 2000-х годов, которую журнал Rolling Stone удостоил включения в свой список пятисот лучших песен всех времён. Скрыть...
Популярные аккорды Outkast:
алфавиту | просмотрам | случайно
  • this part is the siging in the chourus
    
    e|----------------------|--------------|
    b|----------------------|--------------|
    g|--3 5~5~6^5 3-----3 --|--------------|
    d|5-------------6 5---6-|--------------|
    a|----------------------|-8^7~8^8^8^7~-|
    E|----------------------|--------------|
    
    ending…
  • main riff
    e-----------------
    b-----------------
    g-----5--5--7--9--
    d--5--5--5--7--9--
    a--5--3--3--5--7--
    e--3--------------
    
    other riff during chorus
    e--------------12-------------12--------------------------------
    b--12--13--15------12--13--15-----15--13--12------12------------
    g---------------------------------------------14-----12---------
    d--------------------------------------------------------14-14--
    a---------------------------------------------------------------
    e---------------------------------------------------------------…
  •   Intro. Outlaws Green Grass & High Tides 2
    
      Em        C          G        D
    e:----------------0--]-------------------]---------------|
    B:--------------1----]-----0-3--------3--]---------------|
    G:-------0----0------]---0----------2----]-----2-2-------|
    D:-----2-------------]----------0-4------]-4-2-2-2-------|
    A:---2------3--------]-------------------]-5-0-0-0--2h3--|
    E:-0-----------------]-3-----------------]---------------|…
  • Signiture Riff:
    g--------------5-3-------------------
    d---------3-5------5--3--5--6-5-3----
    a--3-5--6----------------------------
    E------------------------------------
    
    g-------------5-3-------------------
    d---------3-5-----5--3--5--6-5-3----
    a--3-5--6---------------------------
    E-----------------------------------
    
    Then…
  • standard tuning(EADG)
    
    
                                verse
         |--------------------------------------------------|
         |--------------------------------------------------|Repeat until chorus
         |--------------------------------------------------|…
  • / downstroke
      upstroke      (or the other way round)
    
     a      F      G      E    C
    
     5      1      3      7    3
     5      1      3      9    5
     5      2      4      9    5
     7      3      5      9    5
     7      3      5…
Наверх