Аккорды «Ozma»

Ozma
Streaming their very own vision of puissant alternative pop/rock, Ozma started its operations in 1995. Daniel Brummel (vocals, bass), Jose Galvez (guitar), Ryen Slegr (guitar), and Patrick Edwards (drums) secured the lineup of this Pasadena crew, that during several years played almost anywhere in the California state area. In 1999, after the addition of keyboard expert Star Wick in 1998, the band managed to collect ten songs for their first demo, titled Songs of Inaudible Trucks and Cars. In 2000,… Читать полностью... Streaming their very own vision of puissant alternative pop/rock, Ozma started its operations in 1995. Daniel Brummel (vocals, bass), Jose Galvez (guitar), Ryen Slegr (guitar), and Patrick Edwards (drums) secured the lineup of this Pasadena crew, that during several years played almost anywhere in the California state area. In 1999, after the addition of keyboard expert Star Wick in 1998, the band managed to collect ten songs for their first demo, titled Songs of Inaudible Trucks and Cars. In 2000, the Californians edited their second title, the album Rock and Roll Part Three, issued by Tornado Recordings. Скрыть...
Популярные аккорды Ozma:
алфавиту | просмотрам | случайно
  • ------------------------------------------------------------------------------|
    ------------------------------------------------------------------------------|
    ------------------------------------------------------------------------------|
    -9-5-7-4-5-7-6---9-5-7-4-5-9-14-13--------------------------------------------|
    ------------------------------------------------------------------------------|
    -7-3-5-2-3-5-4---7-3-5-2-3-7-12-11--------------------------------------------|…
  • Intro/Keys:
    (Tabbed for the guitar)
    ||-------------------------|---------2-0-0---------------------------||
    ||-2-0---2-2-3-0-0-----0-0-|-2-----2-------3-3-2----0-3-3-3-2-2-1-2--||
    ||-----2-----------2-1-----|---2-2---------------1-1-----------------||
    ||-------------------------|-----------------------------------------||
    ||-------------------------|-----------------------------------------||
    ||-------------------------|-----------------------------------------||
    
    
    ||-5-7-4-------4-5-4---9-10-7-6-7---7-9-5-4-5-4-------------||
    ||-------7-6-7-------7------------5-------------7--5-3--2-0-||
    ||----------------------------------------------------------||
    ||----------------------------------------------------------||
    ||----------------------------------------------------------||
    ||----------------------------------------------------------||
    
    
    
    Repeat…
  • Tuning: 1/2 step down
    
    / = legato slide up
     = legato slide down
    h = hammer on to the next note from the previous note
    p = pull off to the next note from the previous note
    ~ = vibaro off the last note picked
    14t12(14) = trill…
  • Tuning:  1/2 step down
    
    INTRO
    Gb|-----------------------------------------------------------------|
    Db|-------------------------------------------------5-5-4-4-2-2-0-0-|
    Ab|---------3-3-5-5---------3-3-5-5---------3-3-5-5-----------------|
    Eb|-3-3-3-3---------3-3-3-3---------3-3-3-3-------------------------|
    
    Gb|-----------------------------------------------------------------|
    Db|-----------------------------------------------------------------|
    Ab|---------3-3-5-5---------3-3-5-5---------3-3-5-5-----------------|
    Eb|-3-3-3-3---------3-3-3-3---------3-3-3-3---------3-3-2-2-3-3-5-5-|
    
    FIRST…
  • Standard Tuning
    
    e----------------------|
    B---------------12*----|
    G---------------12*----|
    D-----------4---12*----|
    A--------2-------------|
    E--0--3----------------|
    
    line played on lead guitar
    as intro melody.
    
    e-----------10-------------------10------------------|
    B---12--10-----12--10----12--10-----12-13-12---------|
    G----------------------9---------------------12------|
    D----------------------------------------------------|
    A----------------------------------------------------|
    E----------------------------------------------------|
    
    e-----------10-------------------10------------------|
    B---12--10-----12--10----12--10-----12-h13-12--------|
    G----------------------9----------------------12-----|
    D----------------------------------------------------|
    A----------------------------------------------------|
    E----------------------------------------------------|
    
    verse…
  • EB TUNING
    
    VERSE:1 & 2
    
    strumming sequence
     
     G   Dsus2  C    E    Bm
    e-3-3--0-0--0-0--0-0--0---0-0--------
    B-0-0--3-3--1-1--0-0--3---3-3--------
    G-0-0--2-2--0-0--1-1--4---4-4--------
    D-0-0--0-0--2-2--2-2--4---4-4--------
    A-2-2--0-0--3-3--2-2--2---2-2--------
    E-3-3--0-0--x-x--0-0--0---0-0--------
    
    chorus:…
  • Standard Tuning - EADBGe
    
    
    [INTRO]
    
    e|--------------------------------|
    B|--------------------------------|
    G|--------------------------------|
    D|-------4-5-2--------------------|   LEAD
    A|--------------5-7-3--0-2-3------|
    E|--------------------------------|…
  • Tune your guitar to Eb Ab Db Gb Bb Eb   (a half-step down)
    
    Intro (G C G C G Em D)
    
    Eb----------------------------------------------------
    Bb----------------------------------------------------
    Gb--2-4-2-4-5-2-4---2-4-2-4-5-2-4-2-2-4---4-2---------
    Db--------------------------------------5-------------
    Ab--------------------------------------------5--5-4-(2)
    Eb----------------------------------------------------
    
    Eb---------------------------------------------------
    Bb---------------------------------------------------
    Gb---------------------------------------------2--2--
    Db-----------2-4-5---5--5-4------------2-4-5--------5
    Ab-----2-3-5-------3-------------2-3-5-------5-------
    Eb-3-5-----------------------3-5---------------------
    
    Eb------------------------------
    Bb-------------3-5--------------
    Gb-------2-4-5-----4--4-3-4--2--
    Db-2-4-5-----------------------5
    Ab------------------------------
    Eb------------------------------
    
    Verse…
  • E ||----------3-----------------3--------------3----2--------||
    B ||------1----------------1--------------1---------1--------||
    G ||---3--------------3---------------2-------------2--------||
    D ||-------------2----------------0-----------------0--------||
    A…
  • Tuning: Eb
    
    (Barely even hit the eB and Bb strings throughout the whole song)
    
    Intro/Verse
    
    
    eb|----------------3--------------------|
    Bb|-1----1----1----1----1---------------|
    Gb|-0----0----0----0----0---------------|
    Db|-0h2--0----2----2----0----x2--then---|
    Ab|-3----3----3----3----3---------------|
    Eb|-------------------------------------|
    
    eb|---------------------3----------------------------|
    Bb|-0----0h1--0----1----1----0----in…
  • tune down 1/2 step
    
    ------------------------------------------------------------------------------|
    ------------------------------------------------------------------------------|
    ---------------------------7--------------------------------------------------|
    -------------------------2-7--------------------------------------------------|
    --9h10-10-10-------------2-5--------------------------------------------------|
    -------------10-12-10----0----------------------------------------------------|…
  • Intro/Rhythm:
    [R|---------------|C]
    [H|---------------|H]
    [Y|--7-----4-2----|O]
    [T|--7-2-4-4-2-4--|R]
    [H|--5-2-4-2-0-4--|D]
    [M|----0-2-----2--|S]
    
    [*|--10--------------------7-9--7-----------5------|G]
    [K|-----10-7-9-10-9-7-9-10--------8-5-----5---8----|U]
    [E|-----------------------------------7-6-------7--|I]
    [Y|------------------------------------------------|T]
    [S|------------------------------------------------|A]
    [*|------------------------------------------------|R]
    
    [R|---------------------|C]
    [H|---------------------|H]
    [Y|---4-5-7-----4-5-7-4-|O]
    [T|-5-4-5-7-5-2-4-5-7-4-|R]
    [H|-5-2-3-5-5-2-2-3-5-2-|D]
    [M|-3-------3-0---------|S]
    
    [*|-10-7-10-11-7-11-12----------------10-------|G]
    [K|--------------------13----------------13-12-|U]
    [E|-----------------------14-12-11-14----------|I]
    [Y|--------------------------------------------|T]
    [S|--------------------------------------------|A]
    [*|--------------------------------------------|R]
    
    [R|---------|C]…
  • Guitars in Standard Tuning
    
    Intro  2x (Phaze Effect)
    C#     F#    C    C#    F    F#    G#
    
    Guitar/Keyboard Riff
    Guitar Comes In Second Time
          C#  F#    C   C#     F       F#    G#   C#  F#       C      C#
    E----------------------------------------------------------------------|
    B-------------7-6---------6------------7-6----6------------------------|
    G-----6----------…
  • Tuning: 1/2 step down
    
    INTRO
    
    Gb|---|
    Db|---|
    Ab|---|
    Eb|-0-|
    
    Gb|-----------------------------------------------------------------|
    Db|-----------------------------------------------------------------|
    Ab|-----------------2-2-2-2-2-2-2-2-5-5-5-5-5-5-5-5-7-7-7-7-7-7-7-7-|x2
    Eb|-2-2-2-2-2-2-2-2-------------------------------------------------|
    
    FIRST…
  • Verse 1 (keyboard, tabbed for guitar):
    
    A                       E
    I'm telling you a story now
    C#                  D
    of something that's wrong
    
    /////play for all Verses////
    
    
    Chorus:
    F#m          D     F#m          D
    Maybe…
  • Tuned a halfstep down, relitive to tuning
    
    Chours:
    E Ab      C#        F# 
    Whoa my eponine, can't you hear the words i sing?
    B
    Can't you hear the words i sing?
    
    verse:
    E       F#      A       B
    A crush can never…
  • Intro/Keyboard:
    (Tabbed for the guitar, I'll have the notes for the keys later)
    ||-------------------------------------------------------------||
    ||-------------------------------------------------------------||
    ||*---------------------------------------------6-7-6---------*||
    ||*-------------4-5-4---------4-5-7-5-4-----4-7-------9-7-----*||
    ||----------2-5-------7-5---5-----------7-5---------------9-7--||
    ||--2-2-3-3---------------7------------------------------------||
    
    Intro/Guitar:
    (Consists…
  • G           Am          Bm           C (bass: 
    C# D Eb)
    Astronauts, Send us up, Once i'm up, i'll beam you shots
       Em           D                 C (bass: C 
    A B)
    As long as you, return me back to you
    
    G…
  • Standard Tuning
    
    
    Eb
    No one needs to know (one needs to know)...
    
    Chorus:
    Bb5                      G5   F5
    Know if a lover's being  faithful, one needs to
    Bb5                     G5  F5
    Know if a lover's being…
  • Tuning: Half Step Down E
    
    Verse:
    
    "Take my hand..."
    
       G    D    Em   B    C    G    A    D
    e|-3----2----0---------0----3----0----2-|
    B|-3----3----0---------1----3----2----3-|
    G|-0----2----2----4----0----0----2----2-|
    D|-0----0----2----4----2----0----2----0-|
    A|-2---------0----2----3----2----0------|
    E|-3---------0--------------3-----------|
    
    
    Fill:
    
    e|-----------------------------------|
    B|-5----4--5--7--7-7--8-5--7--8--7---|
    G|---------------------------------7-|
    D|-----------------------------------|
    A|-----------------------------------|
    E|-----------------------------------|
    
    
    Bridge:
    
    "Nightmares..."…
  • Intro
    Gtr. 1 (rhythm): Play 5x
    e|--------------------------------------------------------------------|
    B|--------------------------------------------------------------------|
    G|-9--9-------------------5-5-5-5-5-5-5-5-----------------------------|
    D|-9--9-4-4--5-5-5-5-5-5--5-5-5-5-5-5-5-5-7-7-7-7-7-7-7-7-7-----------|
    A|-7--7-4-4--5-5-5-5-5-5--3-3-3-3-3-3-3-3-7-7-7-7-7-7-7-7-7-----------|
    E|------2-2--3-3-3-3-3-3------------------5-5-5-5-5-5-5-5-5-----------|…
  • Notation:
    b - bend string up to next indicated note.
    r - release bend back to next indicated note.
    h - hammer onto the next indicated note
    x - muted rake across indicated strings
    
    Verse 1 (just rhythm guitar, voice,…
  • 1/2 step tuning
    
    
    ---4---5---7-5-4h5p4h5p4h5p4h5p4h5p4h5p4-5-12-12-12-12-12-11------------------|
    -0---2---4--------------------------------------------------------------------|
    ------------------------------------------------------------------------------|
    ------------------------------------------------------------------------------|
    ------------------------------------------------------------------------------|
    ------------------------------------------------------------------------------|
    
    
    --------------------------------------------11-------11-----------------------|
    -12-12-12----14-12h14p12--12-------12----------12-------12--------------------|
    ----------14-----------------11-------11----------11-------11-9---------------|
    --------------------------------13-------13-----------------------------------|
    ------------------------------------------------------------------------------|
    ------------------------------------------------------------------------------|
    
    
    -----------4-2----------------------------------------------------------------|
    -4h5p4-2-0-----4-5-4-5-4-5-4-2-0----------------------------------------------|
    ------------------------------------------------------------------------------|
    ------------------------------------------------------------------------------|
    ------------------------------------------------------------------------------|
    ------------------------------------------------------------------------------|…
  • Standard Tuning
    
    e--------------------9-7---------------------|
    B------------10----------10-9---7------------|
    G---6--7--9-----------------------9---7------|
    D--------------------------------------------|
    A--------------------------------------------|
    E--------------------------------------------|
    
    e--------------------------------------------|
    B------------10-----------------------10-9---|
    G---6--7--9----------------------------------|
    D--------------------------------------------|
    A--------------------------------------------|
    E--------------------------------------------|
    
    the…
  • Verse 1:
    
    A              Ab                B               G
    lie detector's on the blink, so comfort me with doublethink
    F#m                     B              Em
    and let's put wallpaper up between our ears…
  • Tuning: E Standard
    
    Intro
    Repeat 2x
    e|-------------------|
    B|-------------------|
    G|-------------------|
    D|-------------------|
    A|-10--10/8-13-13/12-|
    E|--8---8/6-11-11/10-|
    
    Verse
    e|----------------------|
    B|----------------------|
    G|----------------------|
    D|-10--8--6----5--3--13-|
    A|-10--8--6----5--3--13-|
    E|--8--6--4----3--1--11-|
    
    "Sound…
  • Tuning: E Standard
    
    Intro
    Guitar 1
    Repeat 2x
    e|----------------------------------------------------------|
    B|-5--------------------------------------------------------|
    G|---6--4h6-------------------------------------------------|
    D|----------6--4-6-4----------4-6-4--7-7-6-6--4-6-4---------|
    A|-------------------7-6-7-4------------------------7-6h7-4-|
    E|----------------------------------------------------------|
    
    
    Intro
    Guitar…
  • ----4-------3--1----4--3--1---4--3--1-----------|  intro
    -----------------1----------1---------1---------|
    ------------------------------------------------|
    ------------------------------------------------|
    ------------------------------------------------|
    ------------------------------------------------|…
  • Tuning: 1/2 step down
    
    INTRO
    
    keyboard (arranged for bass)
    Gb|-----------------------------------------------------------------|
    Db|-----------------------------------------------------------------|
    Ab|-3-3-3-3-3-3-3-3-3-3-3-3-3-3-3-3-3-3-3-3-3-3-3-3-3-3-3-3-3-3-3-3-|
    Eb|-----------------------------------------------------------------|
    
    bass
    Gb|-----------------------------------------------------------|
    Db|-----------------------------------------------------------|
    Ab|-3-3-3-3-3-3-3-3-/7-7-7-7-7-7-7-7-/10-10-10-10-10-10-10-12-|
    Eb|-----------------------------------------------------------|
    
    Gb|--------------------------|
    Db|--------------------------|
    Ab|-/14-14-14-14-14-14-14-14-|
    Eb|--------------------------|
    
    FIRST…
  • ------------------------------------------------------------------------------|
    ------------------------------------------------------------------------------|
    ---4-5-7----------------------------------------------------------------------|
    -2-4-5-7-5--------------------------------------------------------------------|
    -2-2-3-5-5--------------------------------------------------------------------|
    -0-------3--------------------------------------------------------------------|…
  • -12-10-12-10-9-7----------9-7----------9-7------------------------------------|
    -----------------10-9-7-------10-9-7-------10-9-7-9-10------------------------|
    ------------------------9------------9----------------------------------------|
    ------------------------------------------------------------------------------|
    ------------------------------------------------------------------------------|
    ------------------------------------------------------------------------------|…
  • Eb :----------------|----------------|----------------|----------------|
    Bb :----------------|----------------|----------------|----------------|
    Gb :----------------|----------------|----------------|----------------|
    Db…
Наверх