Аккорды «Pacifier»

Pacifier
Pacifier - новозеландская хэви-метал-группа, играющая музыку в стилях трэш-метал и хардкор. Образована в 1988 в Веллингтоне. Состав: Фил Найт (Phil Knight) (гитара), Джонни Тугуд (Johnny Toogood) (вокал, гитара), Карл Киппенбергер (Karl Kippenberger) (бас-гитара), Том Ларкин (Tom Larkin) (барабаны, вокал). В течение почти всей своей истории группа Pacifier, сформированная барабанщиком Томом Ларкином и вокалистом Джоном Тугудом, называлась SHIHAD; музыка коллектива носила явную ориентацию на… Читать полностью... Pacifier - новозеландская хэви-метал-группа, играющая музыку в стилях трэш-метал и хардкор. Образована в 1988 в Веллингтоне. Состав: Фил Найт (Phil Knight) (гитара), Джонни Тугуд (Johnny Toogood) (вокал, гитара), Карл Киппенбергер (Karl Kippenberger) (бас-гитара), Том Ларкин (Tom Larkin) (барабаны, вокал). В течение почти всей своей истории группа Pacifier, сформированная барабанщиком Томом Ларкином и вокалистом Джоном Тугудом, называлась SHIHAD; музыка коллектива носила явную ориентацию на трэш-метал. В 1991 музыканты записали EP «Devolve», который, несмотря на практически полное отсутствие «раскрутки» на радио и ТВ, стал очень популярным на родине Shihad. Группа тут же пустилась в частые концертные турне по Австралии и Новой Зеландии. Дебютный альбом «Churn» (1993) получился еще более успешным, дав возможность Shihad начать давать концерты в Европе. Тогда же музыканты подписали контракт с фирмой Noise и вышли на европейский и американский музыкальные рынки. Весьма успешным получился альбом «The Killjoy» (1996), корый заработал группе признание «металломанов» всего мира (саунд Shihad тем временем приблизился к хардкоровому). Тем не менее, музыканты вернулись домой, будучи не в силах совершить по-настоящему значимый прорыв за пределами Новой Зеландии. В Австралии и Новой Зеландии группа была сверхпопулярна: почти каждый концерт собирал многотысячные аудитории и становился аншлаговым. В 1998 вышел еще один EP группы «The Blue Light Disco», а в 2000 — альбом «General Electric», распространением которого занималась компания Warner Australia. Она же склонила музыкантов вернуться в США, где почва для их появления уже была подготовлена такими коллективами, как TRUST COMPANY, SALIVA и D4; в итоге Shihad подписала контракт с Arista. В это самое время произошла трагедия 11 сентября 2001, когда арабские террористы уничтожили здания Всемирного торгового комплекса, и группе, название которой было созвучно со словом «джихад», пришлось менять вывеску; в результате было выбрано название Pacifier («Миротворец»). Под тем же названием в 2000 вышел очередной альбом группы. В 2003 Pacifier уже вовсю ротировались на MTV2 со своим синглом Bullitproof, а также выступили на летнем фестивале в Лоллапалузе (Lollapalooza). Дискография: CHURN (1993) THE KILLJOY (1996) GENERAL ELECTRIC (2000) Pacifier (2002) Скрыть...
Популярные аккорды Pacifier:
алфавиту | просмотрам | случайно
  • Tuning - CGCFAD
    
    Intro
    -----------------------------------------
    -----------------------------------------
    -----------------------------------------
    ------(7)(7)(7)-------(7)(7)(7)(7)(7)----  x2
    -----------------------------------------
    --0-0------------0-0---------------------
    
    -----------------------------------------
    -----------------------------------------
    -----------------------------------------
    --0-0-(7)(7)(7)--0-0--(7)(7)(7)(7)(7)----…
  • Standard Tuning
    
    Intro
    e|------------------------------------------|
    B|-----x---------x------5-5-x-5-5-5-5-x-5-5-|
    G|-5-5-x-5-5-5-5-x-5-5--5-5-x-5-5-5-5-x-5-5-|
    D|-3-3-x-3-3-3-3-x-3-3--3-3-x-3-3-3-3-x-3-3-|
    A|------------------------------------------|
    E|------------------------------------------|
    
    Chorus
    e|-------------------------------------------------|
    B|-------------------------------------------------|
    G|------x-5-------x--5-----------x-----------x-----|
    D|-7-7--x-3--7-7--x--3------7-7--x-5-5--7-7--x-5-5-|
    A|-5-5--x----5-5--x---------5-5--x-3-3--5-5--x-3-3-|
    E|-------------------------------------------------|
    
    
    e|------------------------------------|…
  • INTRO
    F|-----------------------------|-----------------------------|-----------------------------|
    C|-----------------------------|-----------------------------|-----------------------------|
    G|-66666666-55555555-0---------|-66666666-55555555-0---------|-66666666-55555555-0-1-1-1-1-|
    C|---------------------3-3-3-3-|---------------------3-3-3-3-|-----------------------------|
    
    F|-----------------------------|
    C|-----------------------------|
    G|-66666666-55555555-0---------|
    C|---------------------3-3-3-3-|
    
    
    
    VERSES
    F|----------------------------|----------------------------|-----------------------------|
    C|----------------------------|----------------------------|-----------------------------|
    G|----------------------------|----------------------------|-----------------------------|
    C|-66666666-1-1--0--1h3-3-3-3-|-66666666-1-1--0--1h3-3-3-3-|-66666666-1-1--0--1--0-0-0-0-|
    
    F|----------------------------|
    C|----------------------------|
    G|----------------------------|
    C|-66666666-1-1--0--1h3-3-3-3-|
    
    
    
    CHORUS…
  • STANDARD TUNING (E  A  D  G  B  E)
    Chords used:
    
    Em/G Cadd9 G G/F# Bm
    E|-3------3-----3---3-----2-------------
    A|-3------3-----3---3-----3-------------
    D|-0------0-----0---0-----4-------------
    G|-2------2-----0---0-----4-------------
    B|-2------3-----X---X-----2-------------
    E|-0------------3---2-------------------
    
    
    Em/G…
  • Tuning:C-G-C-F-A-D
    
    e|---------------------------------------------------------------------------|
    B|---------------------------------------------------------------------------|
    G|-----7---------------------------------------------------------------------|
    D|--0--7---5-5-3-5-------3X--------------------------------------------------|
    A|--0--5---5-5-3-5-----------------------------------------------------------|
    E|--0------5-5-3-5-----------------------------------------------------------|
    
    e|---------------------------------------------------------------------------|
    B|---------------------------------------------------------------------------|
    G|---------------------------------------------------------------------------|
    D|--8-5-5-5-3-5-0------------------------------------------------------------|
    A|--8-5-5-5-3-5-0------------------------------------------------------------|
    E|--8-5-5-5-3-5-0------------------------------------------------------------|…
  • tuning: normal
    
    for bass
    
    intro
    G----------------------------------------------------------------
    D----------------------------------------------------------------
    A----------------------------------------------------------------
    E----8-8-8-8-8-8-8-8-8-8-8-8-8-8-8-8-8-8-8-8-8-8-8-8-8-8-8-8-8-8-…
Наверх