Аккорды Padla Bear Outfit - California

Добавлено: @romashka
Дата добавления: 28 Июня 2017г.
Рейтинг:
0.0
Просмотров: 322
Транспонировать - +
Проигрыш 1:  
E---------------------------------|
B---------------------------------|
G---------------------------------|
D---------------------------------|  x4
A---------------1-3--3-1-3-5-3-1--|
E-3-3-1-3---1-3-------------------|

Куплет:
G(III)               F
Жгучее количество физических планов
C5
Твое утро разработал какой-то там Стаханов
G(III)               F
Красная армия стерлась в белый порошок
C5
Ты берешь ключи и пластмассовый мешок
G(III) 
— Эй, рабочий. 
F
— Что, рабочий?
C5
Конечно же, ты сам сегодня делаешь, что хочешь
G(III)               F
Только как захочешь, любые детали
C5
Из дерева, олова, меди или стали

(ДАЛЕЕ ГЛУШИМ ВСЕ СТРУНЫ И ПРОСТО БОЙ ВНИЗ)
Ты механическим движением открываешь станок,
а там сегодня вместо стружки

Припев:
G(III) B5 A5 B5
Калифорния
G(III) B5 A5 B5
Калифорния
G(III) B5 A5 B5
Калифорния

Проигрыш 2:
E--------------------------|
B--------------------------|
G--------------5--5--------|
D--------7--7--------7--7--|  x2
A--5--5--------------------|
E--------------------------|

Проигрыш 1:  
E---------------------------------|
B---------------------------------|
G---------------------------------|
D---------------------------------|  x4
A---------------1-3--3-1-3-5-3-1--|
E-3-3-1-3---1-3-------------------|


G(III)               F
Любое твое утро как рекламный плакат
C5
Его ты сам себе обозначил полтора года назад
G(III)               F
Ты не знаешь тех, кто стоял бы у станка
C5
У тебя ключей больше и сумка легка
G(III)
— Эй, служака. 
F
— Что, служака?
C5
Конечно же, ты сам решил стоять в пробке до брака
G(III)               F
Ты сам себе выбрал эту суку в боссы
C5
И меньше тебе не заплатят без спроса
C5
Ты, вслепую, наконец-то, открываешь дверь,
C5
включаешь комп, а там, вместо твоего ебучего интернета

Припев:
G(III) B5 A5 B5
Калифорния
G(III) B5 A5 B5
Калифорния
G(III) B5 A5 B5
Калифорния

Проигрыш 1:
E--------------------------|
B--------------------------|
G--------------5--5--------|
D--------7--7--------7--7--|  x2
A--5--5--------------------|
E--------------------------|

Проигрыш 3: не подбирал

Проигрыш 2:  
E---------------------------------|
B---------------------------------|
G---------------------------------|
D---------------------------------|  x4
A---------------1-3--3-1-3-5-3-1--|
E-3-3-1-3---1-3-------------------|
Наверх