Аккорды Pantera - I'm Broken

Добавлено: @romashka
Дата добавления: 14 Июля 2016г.
Рейтинг:
0.0
Просмотров: 200
Транспонировать - +
Tuning: Drop D Tuning (G,D,A,D)
note: DEAD NOTES CAN BE USED AS OPEN D'S IF YOU WANNA ADD BOOST OR RESTS IF 
YOUR TIRED, ps - working on Hollow as you read this

3h5 = hammer on
3p0 = pull off
~   = let note ring
x   = dead note (aka finger mute)
* * = repeat measure
R   = Rest

intro is played at other times during the song as well as after intro, you'll
know where it is
Intro                    After Intro (x2 - second rotation = variations with open D)
G|--------------------|------------------------------------------------------|
D|*------------------*|-------------------------3h5----------------------7p5~|
A|*-3/5--3/5--3p0----*|--3/5--3/5--3p0------3h5-------3/5--3/5--3p0---3h5----|
D|---------------3-0~-|R---------------3-0-------------------------3-0-------|


 verse p1       verse bridge    Verse p2 (elevens, note ones)
G|------------|---------------|----------------|
D|*----------*|---------------|*--------------*|
A|*----------*|--0------0--6-4|*--------------*|
D|---5-5--x-x-|----5--3-------|---11-11--x-x---|

Chorus/bassline under guitar solo
G|--------------------------------|
D|*------------------------------*|
A|*------------------------------*|
D|-5--6--5--3--2-----2--3--2--1---|

breaks and fill

G|----------------------------|
D|*--------------------------*|
A|*------------3h5-3h5-3p0---*|
D|-0-0-0-0-0-0-------------3-0|
comments powered by Disqus
Наверх