Аккорды Paramore - Let This Go

Добавлено: @romashka
Дата добавления: 14 Февраля 2024г.
Рейтинг:
0.0
Просмотров: 68
Key: F#

Tuning: Standard on both guitars

Chords used:

D#m -   x68876
F#-     244322    
B-      x24442   
G#m -   466444 
F#/Bb - 143xxx


Intro:

Part 1:

Guitar 1:
e|-------14-------14-|-------16-------16-|-------14-------14-
B|----12-------12----|----12-------12----|----12-------12----
G|-15-------15-------|-15-------15-------|-15-------15-------
D|-------------------|-------------------|------------------- (x2)
A|-------------------|-------------------|-------------------
E|-------------------|-------------------|-------------------

Guitar 2: Chords
D#m-F#-B (x2)

Part 2:

Guitar 1:
e-----------9-7---6-7---6-7---6-7-------
B---------7-----7-----7-----7-----------
G---------------------------------------
D--------------------------------------- (x2)
A---------------------------------------
E---------------------------------------

Guitar 2: Chords
B-G#m-- (x2)

Verse 1:
B    G#m                 B   G#m
  Maybe if my heart stops beating
                 D#m
it won't hurt this much

Guitar 2:
e|--------------------
B|--------7-6---------
G|------------6-6-----
D|----------------8-8-
A|--------------------
E|--------------------

   B  G#m               B   G#m             D#m
and never will I have to answer again to anyone

Guitar 2:
e|--------------------
B|--------7-6---------
G|------------6-6-----
D|----------------8-8-
A|--------------------
E|--------------------

B      G#m          B    G#m
please don't get me wrong


Chorus:
        F#                  B
because I'll never let this go
    G#m              F#/Bb         B
but I can't find the words to tell you
  F#                      B
I don't want to be------alone
    G#m             F#/Bb        B
but now I feel like I don't know you


Verse 2:
B     G#m                    B G#m
  One day you'll get sick of saying
                    D#m
that everything's alright

Guitar 2:
e|--------------------
B|--------7-6---------
G|------------6-6-----
D|----------------8-8-
A|--------------------
E|--------------------

   B   G#m                   B   G#m 
and by then I'm sure I'll pre-tending
                 D#m
just like I am tonight

Guitar 2:
e|--------------------
B|--------7-6---------
G|------------6-6-----
D|----------------8-8-
A|--------------------
E|--------------------

B      G#m          B    G#m
please don't get me wrong

(Repeat chorus)

Bridge: (Repeat Intro Part 1 pattern)
D#m   F#/Bb B
  let this  go
D#m   F#   B
  let this go

Solo:

Guitar 2:

e|-----2-|-------|-----2-|-4-2-2-|-----2-|-------|---------
B|-------|-------|-------|-------|-------|-------|---------
G|-3-4---|-3-4-1-|-3-4---|-------|-3-4---|-3-4-1-|----1--3-
D|-------|-------|-------|-------|-------|-------|-4------- (x2)
A|-------|-------|-------|-------|-------|-------|---------
E|-------|-------|-------|-------|-------|-------|---------

Guitar 2:

D#m-F#/Bb-B--D#m-F#-B (x2)

(Repeat Chorus)

Coda:

    G#m             F#/Bb        B(Hold)
but now I feel like I don't know you
Музыка - лучшее утешение для опечаленного человека (Лютер)
Мы стремимся к созданию контента, соответствующего всем нормам законодательства и уважающего интеллектуальную собственность. Мы также придаем большое значение тому, чтобы не задеть никого и не оскорбить чьи-либо чувства. Если у вас есть вопросы или претензии по размещенному материалу, пожалуйста, сообщите нам об этом.
Шрифт
-
0
+
Прокрутка
-
0
+
Стоп
Наверх