Аккорды Paul McCartney - Angry

Добавлено: @romashka
Дата добавления: 07 Января 2024г.
Рейтинг:
0.0
Просмотров: 90
Tuning: Standard

---------------------------------------------------------------------------

[Intro]
  E   B   A   G E                   E   B   A   G E
  1 + 2 + 3 + 4 +  1 + 2 + 3 + 4 +  1 + 2 + 3 + 4 +  1 + 2 + 3 + 4 +
e|----------------|----------------|----------------|----------------|
B|----------------|----------------|----------------|----------------|
G|9---------------|-------------x-x|9---------------|----------------|
D|9---9---7---5---|-------------x-x|9---9---7---5---|----------------|
A|----9---7---5-2-|----------------|----9---7---5-2-|----------------|
E|--------------0-|----------------|--------------0-|----------------|

[Post-Chorus]
  E
  1 + 2 + 3 + 4 +  1 + 2 + 3 + 4 +
e|0---0-0-----0---|0-0-----0----0--|
B|0---0-0-----0---|0-0-----0----0--|
G|7---9-7-----6\--|4---------------|
D|----------------|--6-----7----9--|
A|----------------|----------------|
E|----------------|----------------|

---------------------------------------------------------------------------

[Intro]
| E | % | % | % |
(bass and hi-hat
| E B A G | E | E B A G | E |

[Chorus]
E
What the hell gives you the right to tell me what to do with my life?
  E
Especially when you made a mess of every chance you had at success?
        E
Look at you, just look at you
            E
I said, I'm angry just looking at you - ah, come on

[Post-Chorus]
| E | % | % | % |
(riff)

[Verse 1]
          E
Well, I'm sick and tired of sitting back and listening to all of your clap-trap (Clap-trap)
E
If you could get me to take the rap, I guarantee you'd leave me with a backslap (Backslap)
E
Push me to the left, push me to the right, try to take me out of the way
E
Even when you kick me off the edge of the world, you're still gonna hear me say

[Chorus]
E
What the hell gives you the right to tell me what to do with my life?
  E
Especially when you made a mess of every chance you had at success?
        E
Look at you, just look at you
            E
I said, I'm angry just looking at you - shouting down, shouting down ...

[Post-Chorus]
E
Shouting down again Mahama, shouting down again
E                                         [ A ]
Shouting down again Mahama, shouting down again

Solo
| A | % | % | % |
         2/4
| A | % | % | E |
| N.C. | % | % |
| E | % | % | % |
(bass and drums)
| E B A G | E | E B A G | E |

[Verse 2]
  E
I can't begin to tell you all the reasons why you're making me crazy (Crazy)
     E
I've got so many answers, like you're stupid, like you're crooked, like you're lazy (Lazy)
E
Hit me with your left, hit me with your right, kick me from the top to the toe
E
Even when you chew me up and spit me out, I'm still gonna want to know

[Chorus]
E
What the hell gives you the right to tell me what to do with my life?
  E
Especially when you made a mess of every chance you had at success?
        E
Look at you, just look at you
            E
I said, I'm angry just looking at you - looking, shouting, oh

[Post-Chorus]
E
Shouting down again Mahama, shouting down again
E
Shouting down again Mahama, shouting down again

[Post-Chorus]
| E | % | % | % |
(riff)
| E | % | % | % |
(riff)

[Outro]
| E | % | % | % |
(riff)
Shouting down, shouting down
Angry, angry
| E | % |         E    E/B    E/G#   E           A
(riff)     What the hell gives you the right?		
Без музыки жизнь была бы заблуждением (Ницше)
Мы стремимся к созданию контента, соответствующего всем нормам законодательства и уважающего интеллектуальную собственность. Мы также придаем большое значение тому, чтобы не задеть никого и не оскорбить чьи-либо чувства. Если у вас есть вопросы или претензии по размещенному материалу, пожалуйста, сообщите нам об этом на указанный адрес электронной почты: [email protected].
Шрифт
-
0
+
Прокрутка
-
0
+
Стоп
Наверх