Аккорды Павел Кашин - Гномики

Добавлено: @romashka
Дата добавления: 20 Августа 2017г.
Рейтинг:
0.0
Просмотров: 362
Транспонировать - +
Вступление: Dm }x2
  
 Dm         Dm       Gm  Gm               A7 Dm
e|-1-0---0-------------------------------------
b|-----2---3---3-1---1-------------------------
g|-----------------2---3---3-2---2-0----------- }x2
d|-----------------------------3-------3-2---0-
a|-----------------------------------------4---
e|---------------------------------------------

Dm
На моем уютном столике
    A7  Dm          A7  Dm
Танцуют рожицы смешные польки.
Dm
Эти рожицы росточком с гномиков,
   A7   Dm          A7  Dm
Но эти гномики - такие комики.
  Gm
И я запоминаю музыку.
     D   Gm       D      Gm
Мне тоже хочется быть малюсеньким,
 Dm
Чтоб хватило места в столике
A7   Dm          A7  Dm
Моей малюсенькой мечте.

Проигрыш:
 Dm         Dm       Gm  Gm               A7 Dm
e|-1-0---0-------------------------------------
b|-----2---3---3-1---1-------------------------
g|-----------------2---3---3-2---2-0----------- }x2
d|-----------------------------3-------3-2---0-
a|-----------------------------------------4---
e|---------------------------------------------

Dm
За окном звенят трамваи -
    A7  Dm          A7  Dm
Они железные, они пугают нас.
Dm
Только рожицы, они плевали.
    A7  Dm          A7  Dm
Они не ваши, им не до вас.
  Gm
На моем уютном столике
     D   Gm       D      Gm
Танцуют рожицы смешные польки.
Dm
Эти рожицы росточком с гномиков
A7   Dm          A7  Dm
В моей малюсенькой мечте.

Проигрыш: Dm Dm Gm Dm A7 Gm Dm A7

Dm         Dm       Gm  Gm               A7 Dm
e|-1-0---0-------------------------------------
b|-----2---3---3-1---1-------------------------
g|-----------------2---3---3-2---2-0----------- }x2
d|-----------------------------3-------3-2---0-
a|-----------------------------------------4---
e|---------------------------------------------

e|-1-0---0-------------------------------------
b|-----2---3---3-1---1-------------------------
g|-----------------2---3---3-2---2-0-----------
d|-----------------------------3-------3-2---0-
a|-----------------------------------------4---
e|---------------------------------------------
Наверх