Аккорды Павел Кашин - Свет

Добавлено: @romashka
Дата добавления: 16 Марта 2013г.
Рейтинг:
0.0
Просмотров: 321
Транспонировать - +
Вступление: C Em F


 C                  Em                  F
Я смотрел спектакль через дырку в портьере
Я сердил ее пальцы вздрагивая нервным смехом
И как-то в сером полумраке я совсем заскучал
И от короткого желания чуть-чуть не закричал


Я увидел Свет


Я бежал на четвереньках отставая на круг с непривычки
Я скакал по головам не заметив свободной дорожки
И как-то грязный пот превратил лицо в маски
И удары ниже пояса казались лаской


Я увидел Свет


Я зашел в твой дом на минуту и остался на несколько лет
Я забыл забыл запах улиц ради дыма твоих сигарет
И когда поздно ночью ты открыла мне дверь
Я смотрел в твои глаза как испуганный зверь


И я увидел Свет


Соло:

1|-------------------------------------------------------------|
2|------------------------------------------------8-10--13--13-|
3|-9^10^9-10-9-7-9-7---------9---10-9--7--9--7-9---------------|
4|-------------------10-9-9---7--------------------------------|

1|-------------------------------------------------------------|
2|13-12-10-12-10-8-10-10-8-8-6-5-3^4^3-------------------------|
3|------------------------------------9^10^9-10-9-7-9-7--------|
4|-----------------------------------------------------10-9-9-7|


Наш воздушный шар оказался рваной игрушкой
Нас теперь называют словом "друзья"
И я хожу к тебе в гости пью твой чай
Улыбаюсь и немного скучаю


Я увидел Свет
comments powered by Disqus
Наверх