Аккорды Павел Пламенев - Боже, милый

Добавлено: @romashka
Дата добавления: 13 Октября 2021г.
Рейтинг:
0.0
Просмотров: 39
Транспонировать - +
:-2------2--0--------0----2---------2--0--
:------3----------0--------------3--------
:----0---------0--------------0-----------
:-----------------------------------------
:-----------------------------------------
:-0---------0-------------0------------0--


Когда увидишь зарожденье дня

:---------------------------------------------------
:----0--1-------------------------------1--------1--
:----------0-----0-------------------0-----0--------
:-------------2-----2/4--2--------2-----------2-----
:-2-------------------------2--3--------------------
:----0----------------------------------------------

И звёзд, мерцавших, побледневший свет

:---------------------------------------2/3/2-----------
:----0--1----------------------------3---------3-----3--
:----------0-----0----------------2---------------2-----
:-------------2-----2/4--2-----0------------------------
:-2-------------------------2---------------------------
:----0--------------------------------------------------

Увидишь лучь небесного огня,

:---------------------------------------------------
:----0--1-------------------------------1--------1--
:----------0-----0-------------------0-----0--------
:-------------2-----2/4--2--------2-----------2-----
:-2-------------------------2--3--------------------
:----0----------------------------------------------

Что дарит жизнь земле уж мого лет,

:---------------------------------------------
:-0----0----2----2----------5-----6-----5-----
:-0----0----2----2-------5-----5-----5-----5--
:---------------------5-----------------------
:---------------------------------------------
:-0----0----1----1----8-----------------------

Тогда ты осознаешь глубину

:----7--5/7/5/3--0--3--2--0-----------------------0--
:-0--------------------------0--1--------1-----1-----
:-------------------------------------2-----2--------
:----------------------------------2-----------------
:-------------------------------0--------------------
:----------------------------------------------------

Той жизни, что на миг тебе дана,

:----7--5/7/5/3--0--3--2--0-----------------------0--
:-0--------------------------0--1--------1-----1-----
:-------------------------------------0-----0--------
:----------------------------------2-----------------
:-------------------------------3--------------------
:----------------------------------------------------

И ту борьбу, которую в себе несёт она.

:-8-----8----7---7----------------------------------------------------------------------(12)-
:----5-----5---5---5----8-----8-----7-----7-----8-----8-----7--------7----5--------5----(12)-
:----------------5------------------------------------------------0-------------4-------(12)-
:------------5-------------9-----9-----7-----7-----9-----9-----7-------------5---------------
:-------0------------------------------------------------------------------------------------
:-0---------------------0-----0-----7-----7-----0-----0-----7-------------0------------------

Боже, милый... знаешь ты как трудно

:-5-----3-----2-----0-----------------3-----2--
:----0-----0-----0-----0--1--------1-----------
:-------------------------------2--------4-----
:----------------------------2--------------4--
:-------------------------0-----------0--------
:-5-----3-----2-----0--------------------------

Сохронить мне веру? про тебя

:-5-----3-----2-----0-----------------3-----2--
:----0-----0-----0-----0--1--------1--------0--
:-------------------------------2--------4--4--
:----------------------------2--------------4--
:-------------------------0-----------0-----0--
:-5-----3-----2-----0--------------------------

Этот мир твердит ежеминутно,

:-5-----3-----2-----0-----------------3-----2--
:----0-----0-----0-----0--1--------1-----------
:-------------------------------2--------4-----
:----------------------------2--------------4--
:-------------------------0-----------0--------
:-5-----3-----2-----0--------------------------

Что ты всех нас бросил нелюбя!

:-5-----3-----2-----0-----------------3-----2--
:----0-----0-----0-----0--1--------1--------0--
:-------------------------------2--------4--4--
:----------------------------2--------------4--
:-------------------------0-----------0-----0--
:-5-----3-----2-----0--------------------------



:-2------2--0--------0----2---------2--0--
:------3----------0--------------3--------
:----0---------0--------------0-----------
:-----------------------------------------
:-----------------------------------------
:-0---------0-------------0------------0--

И мы в круговороте серых дней 

:-------------------------------
:-------------------------------
:----4--2--0--------------------
:-------------2--5--4--2--------
:-2-----------------------2--3--
:-------------------------------

Забыли, что нас сделало людьми.

:-------------------------------------
:-------------------------------------
:----4--2/4/2--0----------------------
:-----------------2--5--4--2----------
:-2---------------------------2--3/5--
:-------------------------------------

Мы жрём друг друга, делая больней,

:-----------------------------------
:-----------------------------------
:----4--2/4/2--0--------------------
:-----------------2--5--4--2--------
:-2---------------------------2--3--
:-----------------------------------

В попытках стать зверьми.

:---------------------------------------------
:-0----0----2----2----------5-----6-----5-----
:-0----0----2----2-------5-----5-----5-----5--
:---------------------5-----------------------
:---------------------------------------------
:-0----0----1----1----8-----------------------


Но я хотел бы помнить о любви-

:----7--5/7/5/3--0--3--2--0-----------------------0--
:-0--------------------------0--1--------1-----1-----
:-------------------------------------2-----2--------
:----------------------------------2-----------------
:-------------------------------0--------------------
:----------------------------------------------------

Я всё же вижу свет в своей судьбе,

:----7--5/7/5/3--0--3--2--0-----------------------0--
:-0--------------------------0--1--------1-----1-----
:-------------------------------------0-----0--------
:----------------------------------2-----------------
:-------------------------------3--------------------
:----------------------------------------------------

И этот свет, блуждающий во тьме ведёт меня к тебе.

:-8-----8----7---7----------------------------------------------------------------------(12)-
:----5-----5---5---5----8-----8-----7-----7-----8-----8-----7--------7----5--------5----(12)-
:----------------5------------------------------------------------0-------------4-------(12)-
:------------5-------------9-----9-----7-----7-----9-----9-----7-------------5---------------
:-------0------------------------------------------------------------------------------------
:-0---------------------0-----0-----7-----7-----0-----0-----7-------------0------------------


Боже, милый... знаешь ты как трудно

:-5-----3-----2-----0-----------------3-----2--
:----0-----0-----0-----0--1--------1-----------
:-------------------------------2--------4-----
:----------------------------2--------------4--
:-------------------------0-----------0--------
:-5-----3-----2-----0--------------------------

Сохронить мне веру? про тебя

:-5-----3-----2-----0-----------------3-----2--
:----0-----0-----0-----0--1--------1--------0--
:-------------------------------2--------4--4--
:----------------------------2--------------4--
:-------------------------0-----------0-----0--
:-5-----3-----2-----0--------------------------

Этот мир твердит ежеминутно,

:-5-----3-----2-----0-----------------3-----2--
:----0-----0-----0-----0--1--------1-----------
:-------------------------------2--------4-----
:----------------------------2--------------4--
:-------------------------0-----------0--------
:-5-----3-----2-----0--------------------------

Что ты всех нас проклял уходя!

:-5-----3-----2-----0-----------------3-----2--
:----0-----0-----0-----0--1--------1--------0--
:-------------------------------2--------4--4--
:----------------------------2--------------4--
:-------------------------0-----------0-----0--
:-5-----3-----2-----0--------------------------

И повтор.

Боже, милый... знаешь ты как трудно 
Сохронить мне веру о тебе?
помнить каждый миг, ежеминутно,
Что твоя частичка есть во мне!?
Наверх