Аккорды Peat and Diesel - Country Boy

Добавлено: @romashka
Дата добавления: 04 Января 2024г.
Рейтинг:
0.0
Просмотров: 93
[Intro]

e|--------------------10-12-14--12--12h14-12h14-12-10---------14-|
B|-12--14-12-10--12h14-------------------------------14-10-10----|
B|
G|---------------------------------------------------------------|
D|---------------------------------------------------------------|
A|---------------------------------------------------------------|
E|---------------------------------------------------------------|

e|--------------------10-12-14---12-17-14-12-14-10---------------|
B|-12--14-12-10--12h14-------------------------------12-12-------|
G|---------------------------------------------------------------|
D|---------------------------------------------------------------|
A|---------------------------------------------------------------|
E|---------------------------------------------------------------|

[Chorus}

Bm                  D
I am a country boy, and I don't like the city
A                      E
I'd rather be at home, watching the telly
Bm                                   D
The cows and sheep are in the croft, and I'm hiding up in my grannies loft
A                              E
Trying to find a way to make a living

[Verse 1]

Bm                               D
It's six in the morning, and I'm in my bed
A                          E
I spent most of the night, in the shed
Bm                      D
I was in the shed, with me and my mates
A                         E
Scoffing magic mushrooms, off a plate

[Chorus]

Bm                  D
I am a country boy, and I don't like the city
A                      E
I'd rather be at home, watching the telly
Bm                                   D
The cows and sheep are in the croft, and I'm hiding up in my grannies loft
A                              E
Trying to find a way to make a living

[Repeat intro tab or play through chords twice]

[Verse 2]

Bm                                   D
Well I know this isn't normal, and I know this isn't right
A                E
Any average man, they would get a fright
Bm                               D
My head is in the clouds, and my guts are on the deck
A                  E
Seven hours to go, before I lose the sweats

[Chorus]

Bm                  D
I am a country boy, and I don't like the city
A                      E
I'd rather be at home, watching the telly
Bm                                   D
The cows and sheep are in the croft, and I'm hiding up in my grannies loft
A                              E
Trying to find a way to make a living

[Repeat intro tab twice or play through chords x4]

[Outro]

Bm                          D
Well I am a country boy and I don't like the city
A                     E
I'd rather be at home watching the telly

************************************

| h  Hammer-on

************************************	
Но если и музыка нас оставит, что будет тогда с нашим миром? (Гоголь)
Мы стремимся к созданию контента, соответствующего всем нормам законодательства и уважающего интеллектуальную собственность. Мы также придаем большое значение тому, чтобы не задеть никого и не оскорбить чьи-либо чувства. Если у вас есть вопросы или претензии по размещенному материалу, пожалуйста, сообщите нам об этом на указанный адрес электронной почты: [email protected].
Шрифт
-
0
+
Прокрутка
-
0
+
Стоп
Наверх