Аккорды Песни из мультфильмов - SpongeBob SquarePants (из мультфильма "Губка Боб Квадратные Штаны" - "SpongeBob SquarePants")

Добавлено: @vitos
Дата добавления: 30 Июня 2016г.
Рейтинг:
0.0
Просмотров: 3 022
Транспонировать - +
E-----0------------0-----|P|-3-3-3-3-3-3-3-3-0----|P|
B-3-3----3-0---0-3---3-0-|P|-------------------0-3|P|
G------------0-----------|P|----------------------|P|
D------------------------|P|----------------------|P|
A------------------------|P|----------------------|P|
E------------------------|P|----------------------|P|

E-----0------------0-----|P|-3-3-3-3-3-3-3-5-0----|P|
B-3-3----3-0---0-3---3-0-|P|-------------------0-3|P|
G------------0-----------|P|----------------------|P|
D------------------------|P|----------------------|P|
A------------------------|P|----------------------|P|
E------------------------|P|----------------------|P|

E-3-0-----|-3-0----|-3-0----|---0-2-3-|
B-----3-0-|----3-0-|----3-0-|-3-------|
G---------|--------|--------|---------|
D---------|--------|--------|---------|
A---------|--------|--------|---------|
E---------|--------|--------|---------|

E-15-17-19-17-19-15-|----15-|
B-------------------|-15----|
G-------------------|-------|
D-------------------|-------|
A-------------------|-------|
E-------------------|-------|
comments powered by Disqus
Наверх