Аккорды Ploho - Пыль

Добавлено: @romashka
Дата добавления: 25 Июля 2022г.
Рейтинг:
0.0
Просмотров: 64
Транспонировать - +
[Вступление]:
   Bm                     D                             F#m           G
1)----------------------------------------------------|---------------------------
2)----------------------------------------------------|--------5-------------7----
3)----------------------------------------------------|---6------6------7---------
4)--------------------5-4-----------------------------|/4----4-------/5----5------
5)-2--2-2--2-2-2--2-2-----5--5-5--5-5/7--7-7-5--5h7p5-|---------------------------
6)----------------------------------------------------|---------------------------

B5                             D5
Примеряя на шею собачий бант — главный символ двадцать первого века
B5                        D5
Мой самый главный талант — это быть ненужным человеком
B5                       D5
Тридцать лет идут дожди, эту погоду не исправишь зонтом
B5                     D5
Затормозил на полпути, измельчил свою жизнь, и смешал с табаком
F#5                         G5                    
И всё, что я знаю наверняка: мир — это я, а я — 

B5      D5
Это пыль
B5          D5
Я — это пыль
B5          D5
Я — это пыль
B5          D5   F#5 G5
Я — это пыль

B5                           D5
Обнажая свой обречённый лик, я затягиваю узел от банта
B5                                     D5
Не осталось ничего, кроме точёных пик, и второго неприятного варианта
B5                       D5
Дым стремится к облакам, плавно превращаясь в кольца
B5                         D5
Залетает в окна к господам последняя песня добровольца
F#5                         G5                    
И всё, что я знаю наверняка: мир — это я, а я — 

B5      D5
Это пыль
B5          D5
Я — это пыль
B5          D5
Я — это пыль
B5          D5   F#5 G5
Я — это пыль 

Бой можно использовать такой: ↓ ↓↑ ↑↓↑ ↑↓↑↓
В припеве лучше играть мелодию или так:                                                       
1)----------------------------------------------------|---------------------------
2)----------------------------------------------------|--------5-------------7----
3)----------------------------------------------------|---6------6------7---------
4)-4--4-4--4-4-4--4-4-5-4--7--7-7--7-7-7--7-7-7-7-----|/4----5-------/5----5------
5)-2--2-2--2-2-2--2-2-2-2--5--5-5--5-5-7--7-7-5-5h6p5-|---------------------------
6)----------------------------------------------------|---------------------------
тем же боем 
Наверх