Аккорды «Poison»

Poison
Poison (рус. «Яд») — американская глэм/рок- и хард/рок-группа, образованная в 1983 году. Наибольшего успеха и популярности группа достигла в конце 80-х - начале 90-х годов Группа Poison была образована в США в 1982 году в американском городке Харрисбург. Поначалу группа имела название «Paris». Первый состав включал четырёх музыкантов из Пенсильвании — Брета Майклса (Брет Сичак, р. 15 марта 1962; вокал), Бобби Долла (Гарри Кай Кендалл, р. 2 ноября 1958; бас), Мэтта Смита (гитара) и Рикки Рокетта… Читать полностью... Poison (рус. «Яд») — американская глэм/рок- и хард/рок-группа, образованная в 1983 году. Наибольшего успеха и популярности группа достигла в конце 80-х - начале 90-х годов Группа Poison была образована в США в 1982 году в американском городке Харрисбург. Поначалу группа имела название «Paris». Первый состав включал четырёх музыкантов из Пенсильвании — Брета Майклса (Брет Сичак, р. 15 марта 1962; вокал), Бобби Долла (Гарри Кай Кендалл, р. 2 ноября 1958; бас), Мэтта Смита (гитара) и Рикки Рокетта (Алан Рим, р. 8 августа 1959; ударные). Вскоре гитарист Смит ушел из группы, а его место занял Си Си ДеВилль (Брюс Энтони Йоханнессон, р. 14 мая 1963). Группа переехала в Лос-Анджелес и сменила название на Poison, при этом заключила контракт с Enigma Records. В 1986 году выходит первый альбом Look What the Cat Dragged In, продажа которого превысила более 2 млн. дисков. Три сингла («Talk Dirty to Me», «I Want Action», «I Won’t Forget You») попали в горячую десятку. В 1988 году группа выпускает второй альбом Open Up and Say …Ahh!. Благодаря таким хитам, как «Every Rose Has Its Thorn» (номер 1 в «Billboard»), «Nothin' But A Good Time», «Fallen Angel», «Your Mama Don’t Dance» (все — Топ 10), Open Up and Say …Ahh! уже через две недели получил платиновый статус, а в дальнейшем его продажи составили порядка 8 миллионов экземпляров. После очень успешного тура с Дэвидом Ли Ротом команда вернулась в студию и занялась подготовкой третьего альбома. В 1990 году группа выпустила третий альбом Flesh & Blood. Пластинка добралась до второй строчки «Billboard», а Poison тем временем с триумфом выступили на донингтонском фестивале «Monsters of Rock». По окончании тура в 1991 году вышел двойной концертник Swallow This Live!, на который попали также четыре новых студийных трека. Между тем, внутри коллектива всё складывалось не очень гладко. В итоге Си Си выгнали за алкогольно-кокаиновые пристрастия, а на его место пришел Ричи Котцен. С этим гитаристом в 1993 году был записан альбом Native Tongue. Работа, сопровождавшаяся хит-синглом «Stand», вызвала шквал положительных рецензий. В 1994 году коллектив начал записывать альбом Crack a Smile, однако запись альбома была прервана из-за того, что Брет Майклс угодил в аварию. Впоследствии Брет выздоровел, и группа продолжила работу. В 1996 Poison выпустил сборник Greatest Hits: 1986—1996. После этого в деятельности группы наступило затишье, и музыканты занялись каждый своими делами. Лишь летом 1999 года группа воссоединилась с ДеВиллем и провела успешное турне. В 2000 году Capitol Records выпускает альбом Crack a Smile, добавив туда бонусные треки с сессий «MTV Unplugged» 1990 года. Вскоре после этого группа выпустила концертник Power to the People на своем собственном лейбле CMI. В 2002 году выходит новый альбом Hollyweird, однако он был с неприязнью встречен как критиками, так и давними фанами группы. В 2006-м команда провела довольно успешный тур «20 Years Of Rock», а также выпустила ещё одну компиляцию - The Best Of Poison: 20 Years Of Rock. С помощью этого диска коллектив впервые за долгие годы вернулся в Топ 20. В 2007-м группа выпустила свой первый кавер-альбом, Poison’d, в который вошли номера от таких классиков рока, как Sweet, Дэвид Боуи, Элис Купер, The Rolling Stones, Kiss и т. д. Состав: Bret Michaels — вокал, гитара, гармоника Rikki Rockett — ударные, перкуссия Bobby Dall — бас, клавишные C.C. DeVille — гитара Дискография: 1986 — Look What The Cat Dragged In (Enigma—Capitol) 1988 — Open Up And Say… Ahh! (Enigma—Capitol) 1990 — Flesh And Blood (Enigma—Capitol) 1991 — Swallow This Live (Enigma—Capitol) 1992 — Open Up 1993 — Native Tongue (Enigma—Capitol) 1996 — Greatest Hits 1986—1996 (Enigma—Capitol) 2000 — Crack A Smile…And More 2000 — Power To People 2001 — Greatest Hits 2002 — Hollyweird 2005 — Rock Breakout Years. 1987 2006 — The Best of Poison 2006 — Great Big Hits. Live Bootleg 2007 — Poison’D! 2007 — Live. Raw & Uncut 2008 — Poison 2008 — Seven Days Live CD 2010 — Nothin' But a Good Time Скрыть...
Популярные аккорды Poison:
алфавиту | просмотрам | случайно
  • Tune Down 1/2 Step
    
    |--------|-----------|------------------|-----------------|--------------------------|
    |--------|-----------|------------------|-----------------|--------------------------|
    |--------|-------10-|-3---3-(3)-3-3/-5-|-5---5-(5)-5-5-5-|-9/-10-10-10-9/-10-10-10--|
    |--------|-----------|------------------|-----------------|--------------------------|
    
    
    |-------------------------|---------|-----------|-----------|-------||-----------|
    |-------------------------|---------|-----------|-----------|-------||-----------|
    |-9/-10-10-10-10-(10)-10--|-10------|-(10)------|-(10)------|-(10)--||-10-------|
    |-------------------------|---------|-----------|-----------|-------||-----------|…
  • Outro Solo is in E, just wing it.
    
    -----3-----2-----|-3-----2-----3p2-|-----3-----2-----|-------3-3-2-0----------
    -----3-----3-----|-3-----3-----3---|-----3-----3-----|-3-----3-3-3---2--------
    -----------------|-----------------|-----------------|-2-------------^--------
    -----------------|-----------------|-----------------|---------------^--------
    -----------------|-----------------|-3-3---3-3---3-3-|---3-3---------^--------
    -3-3---3-3---3-3-|---3-3---3-3-----|-----------------|---------------^--------…
  • Tune down Ѕ step
    
    b = bend
    r = release
    ~ = vibrato
     = slide down
    / = slide up
    h = hammer on
    p = pull off
    ()= sustain
     
    The intro, verses and chorus have 3 chords
       G  Cadd9  D
    e -3----3----2-
    B -3----3----3-
    G -0----0----2-
    D…
  • RIFF 1
        
    P.M.-----------------------------------------------------------------
    E--------------------------------------------------------------------
    B--------------------------------------------------------------------
    G----2---2---2---4---4---4---4---4-----------------------------------
    D----2---2---2---2---2---2---2---2---2---2---2-----------------------
    A------------------------------------0---0---0---2---2---2---2---2---
    E------------------------------------------------0---0---0---0---0---…
  • Tune at D#
    
        G     C     Em    D    Am    (Bm)
    -|--3--|--3--|--7--|--5--|--5--|--2--|
    -|--3--|--5--|--8--|--7--|--5--|--3--|
    -|--4--|--5--|--9--|--7--|--5--|--4--|
    -|--5--|--5--|--9--|--7--|--7--|--4--|
    -|--5--|--3--|--7--|--5--|--7--|--2--|
    -|--3--|-----|-----|-----|--5--|-----|
    
    Play…
  • Main Riff:
    
    e-------------------------------------|
    b-------------------------------------|
    g-------------------------------------|
    d-----2-----4-----5------4------4h5---|
    a-----2-----4-----5------4------4h5---|
    E-0-0---0-0---0-0----0-0----0-0-------|
    
    varse:
    e---------------------------|
    b---------------------------|
    g--9-----Then…
  • Tune Down 1/2 Step
    Chords Used: (G5-355xxx)
                 (C5-x355xx)
                 (D5-x577xx)
                 ( G-320033)
    Intro:
    e|---------------------------------------------------------|
    B|---------------------------------------------------------|
    G|---------------------------------------------------------|
    D|5x3-5-05x3-5---------------------------------------------|
    A|5x3-5-05x3-5-(x4)----------------------------------------|
    E|3x1-3-03x1-3---------------------------------------------|
    
    Verse:
    e|---------------------------------------------------------|
    B|---------------------------------------------------------|
    G|---------------------------------------------------------|
    D|55555-(x4)-----------------------------------------------|
    A|55555----------------------------------------------------|
    E|33333----------------------------------------------------|
    
    Mama’s…
  • -0--------0----0-|-0---0---0---0--0--0-|-7--7-7-7-7-16-16-16-16-14-14-12------
    -0--------0----0-|-3---3---0---0--0--0-|-5--5-5-5-5-12-12-12-12-12-12-12--12--
    -1--2/4---1----1-|-2---2---2---2--2--1-|--------------------------------------
    -2--4/6---2----2-|-0---0---2-----------|--------------------------------------
    -2--------2----2-|---------0-----------|--------------------------------------
    -0--------0----0-|---------------------|--------------------------------------…
  • Chords
              A5                   G5                   D5
          x 0 2 2 x x          3 x 0 0 3 3          x x 0 2 3 x
    
     Intro
    
     
    
    |-----------------------------------||-------------------|
    |-----------------------------------||o------------------|
    |-----------x-pb8r()b6-()--||------------2------|
    |-----------------------------------||--2-----2-4--------|
    |-0pb4r=(0)-------------------------||o-0-3h4------------|
    |-----------------------------------||-------------------|…
  • -----------------------------------|---------------------12-12-|--------------|
    -----------------------------------|---------------------12-12-|--------------|
    -9--9---9----------9---9-----------|----7--7--9--9---9-x-------|-9--9---9-----|
    -9--9---9-------9h-11--9-----------|----7--7--9--9---9-x-------|-9--9---9-----|
    -9h-11-----9h11-----------11p97---|-7h-9--7--9h-11------------|-9h-11--------|
    -0--0------0--0------------------9-|----------0--0-------------|-0--0---------|…
  • -|-----2----------7---0---|------------------------|----------7-----0---0----|
    -|-0--------------7h9-0h2-|-2-----------------5----|-0--------7h9---0---0h2--|
    -|------------------------|-2--------------2-------|-----1-------------------|
    -|---2----------2---------|-2-2-2----2-2-2-------2-|---2----------2---2------|
    -|------------------------|------------------------|-------------------------|
    -|-0----------------------|-0----------------------|-0-----------------------|…
  • bass tab
    
    tuning
    eadg
    
    intro      twice
    --------------------------------
    --------------------------------
    --------------------------------
    4-4-------------4-4-------------
    
    --------------------------------|
    --------------------------------|
    ----------------4-4-------------|
    2-2---------------------4-2-0-2-|
    do…
  • Intro
    
    
      Gtr I
       <                   <
                                     1
    |-------------------|---------------------|
    |-------------------|---------------------|
    |-16----------------|-14----16-(16)-------|
    |-------------------|---------------------|
    |-------------------|---------------------|
    |-------------------|---------------------|
    |
    |…
  • -----------------------------------|---------------------12-12-|--------------
    -----------------------------------|---------------------12-12-|--------------
    -9--9---9----------9---9-----------|----7--7--9--9---9-x-------|-9--9---9-----
    -9--9---9-------9h-11--9-----------|----7--7--9--9---9-x-------|-9--9---9-----
    -9h-11-----9h11-----------11p97---|-7h-9--7--9h-11------------|-9h-11--------
    -0--0------0--0------------------9-|----------0--0-------------|-0--0---------…
  • |-------------------7-9-12-9-7---9---7--------------------|---------------------------------------|
    |-----------------9------------9---9---7---7--------------|---------------------------------------|
    |-----------4-6-9------------------------9---9-6-8-6-4---4|---------------------------------------|
    |---------6--------------------------------------------7--|-6-7-6-4---4--4---------2-----------2--|
    |-------7-------------------------------------------------|---------7--7---7-4-2------------------|
    |-0-4-7---------------------------------------------------|----------------------0---4-2-4-2-0----|…
  • Chorus:
         A                         D                  A 
    Your Mama don't dance and your Daddy don't rock n' roll. 
         D                                              A 
    Your Mama don't dance and your Daddy don't…
Наверх